  0
SECTION
  2
HEADER
  9
$ACADVER
  1
AC1018
  9
$ACADMAINTVER
 70
    76
  9
$DWGCODEPAGE
  3
ANSI_1252
  9
$INSBASE
 10
0.0
 20
0.0
 30
0.0
  9
$EXTMIN
 10
-0.0182999296821436
 20
-0.012823633827793
 30
-0.0000000000112498
  9
$EXTMAX
 10
1189.049627473852
 20
841.0128353831805
 30
0.0000000000002956
  9
$LIMMIN
 10
0.0
 20
0.0
  9
$LIMMAX
 10
1200.0
 20
840.0
  9
$ORTHOMODE
 70
     0
  9
$REGENMODE
 70
     1
  9
$FILLMODE
 70
     1
  9
$QTEXTMODE
 70
     0
  9
$MIRRTEXT
 70
     1
  9
$LTSCALE
 40
10.0
  9
$ATTMODE
 70
     1
  9
$TEXTSIZE
 40
3.0
  9
$TRACEWID
 40
10.0
  9
$TEXTSTYLE
  7
STANDARD
  9
$CLAYER
  8
HID
  9
$CELTYPE
  6
BYLAYER
  9
$CECOLOR
 62
   256
  9
$CELTSCALE
 40
1.0
  9
$DISPSILH
 70
     0
  9
$DIMSCALE
 40
0.0
  9
$DIMASZ
 40
3.0
  9
$DIMEXO
 40
2.5
  9
$DIMDLI
 40
10.0
  9
$DIMRND
 40
0.0
  9
$DIMDLE
 40
1.25
  9
$DIMEXE
 40
2.5
  9
$DIMTP
 40
0.0
  9
$DIMTM
 40
0.0
  9
$DIMTXT
 40
5.0
  9
$DIMCEN
 40
-3.0
  9
$DIMTSZ
 40
0.0
  9
$DIMTOL
 70
     0
  9
$DIMLIM
 70
     0
  9
$DIMTIH
 70
     0
  9
$DIMTOH
 70
     0
  9
$DIMSE1
 70
     0
  9
$DIMSE2
 70
     0
  9
$DIMTAD
 70
     1
  9
$DIMZIN
 70
     0
  9
$DIMBLK
  1

  9
$DIMASO
 70
     1
  9
$DIMSHO
 70
     0
  9
$DIMPOST
  1

  9
$DIMAPOST
  1

  9
$DIMALT
 70
     0
  9
$DIMALTD
 70
     2
  9
$DIMALTF
 40
0.039
  9
$DIMLFAC
 40
1.0
  9
$DIMTOFL
 70
     1
  9
$DIMTVP
 40
1.5
  9
$DIMTIX
 70
     0
  9
$DIMSOXD
 70
     0
  9
$DIMSAH
 70
     0
  9
$DIMBLK1
  1

  9
$DIMBLK2
  1

  9
$DIMSTYLE
  2
STANDARD
  9
$DIMCLRD
 70
     0
  9
$DIMCLRE
 70
     0
  9
$DIMCLRT
 70
     0
  9
$DIMTFAC
 40
0.75
  9
$DIMGAP
 40
1.5
  9
$DIMJUST
 70
     0
  9
$DIMSD1
 70
     0
  9
$DIMSD2
 70
     0
  9
$DIMTOLJ
 70
     1
  9
$DIMTZIN
 70
     0
  9
$DIMALTZ
 70
     0
  9
$DIMALTTZ
 70
     0
  9
$DIMUPT
 70
     0
  9
$DIMDEC
 70
     2
  9
$DIMTDEC
 70
     2
  9
$DIMALTU
 70
     2
  9
$DIMALTTD
 70
     2
  9
$DIMTXSTY
  7
STANDARD
  9
$DIMAUNIT
 70
     0
  9
$DIMADEC
 70
     0
  9
$DIMALTRND
 40
0.0
  9
$DIMAZIN
 70
     0
  9
$DIMDSEP
 70
    46
  9
$DIMATFIT
 70
     3
  9
$DIMFRAC
 70
     0
  9
$DIMLDRBLK
  1

  9
$DIMLUNIT
 70
     2
  9
$DIMLWD
 70
    -2
  9
$DIMLWE
 70
    -2
  9
$DIMTMOVE
 70
     2
  9
$LUNITS
 70
     2
  9
$LUPREC
 70
     2
  9
$SKETCHINC
 40
1.0
  9
$FILLETRAD
 40
0.0
  9
$AUNITS
 70
     0
  9
$AUPREC
 70
     4
  9
$MENU
  1
acad
  9
$ELEVATION
 40
0.0
  9
$PELEVATION
 40
0.0
  9
$THICKNESS
 40
0.0
  9
$LIMCHECK
 70
     0
  9
$CHAMFERA
 40
0.0
  9
$CHAMFERB
 40
0.0
  9
$CHAMFERC
 40
0.0
  9
$CHAMFERD
 40
0.0
  9
$SKPOLY
 70
     1
  9
$TDCREATE
 40
2449262.478770371
  9
$TDUCREATE
 40
2449262.437103704
  9
$TDUPDATE
 40
2456531.531482627
  9
$TDUUPDATE
 40
2456531.489815961
  9
$TDINDWG
 40
0.0530427662
  9
$TDUSRTIMER
 40
0.0530427662
  9
$USRTIMER
 70
     1
  9
$ANGBASE
 50
0.0
  9
$ANGDIR
 70
     0
  9
$PDMODE
 70
     3
  9
$PDSIZE
 40
0.0
  9
$PLINEWID
 40
0.0
  9
$SPLFRAME
 70
     0
  9
$SPLINETYPE
 70
     6
  9
$SPLINESEGS
 70
     6
  9
$HANDSEED
  5
519
  9
$SURFTAB1
 70
    18
  9
$SURFTAB2
 70
    18
  9
$SURFTYPE
 70
     6
  9
$SURFU
 70
    18
  9
$SURFV
 70
    18
  9
$UCSBASE
  2

  9
$UCSNAME
  2

  9
$UCSORG
 10
0.0
 20
0.0
 30
0.0
  9
$UCSXDIR
 10
1.0
 20
0.0
 30
0.0
  9
$UCSYDIR
 10
0.0
 20
1.0
 30
0.0
  9
$UCSORTHOREF
  2

  9
$UCSORTHOVIEW
 70
     0
  9
$UCSORGTOP
 10
0.0
 20
0.0
 30
0.0
  9
$UCSORGBOTTOM
 10
0.0
 20
0.0
 30
0.0
  9
$UCSORGLEFT
 10
0.0
 20
0.0
 30
0.0
  9
$UCSORGRIGHT
 10
0.0
 20
0.0
 30
0.0
  9
$UCSORGFRONT
 10
0.0
 20
0.0
 30
0.0
  9
$UCSORGBACK
 10
0.0
 20
0.0
 30
0.0
  9
$PUCSBASE
  2

  9
$PUCSNAME
  2

  9
$PUCSORG
 10
0.0
 20
0.0
 30
0.0
  9
$PUCSXDIR
 10
1.0
 20
0.0
 30
0.0
  9
$PUCSYDIR
 10
0.0
 20
1.0
 30
0.0
  9
$PUCSORTHOREF
  2

  9
$PUCSORTHOVIEW
 70
     0
  9
$PUCSORGTOP
 10
0.0
 20
0.0
 30
0.0
  9
$PUCSORGBOTTOM
 10
0.0
 20
0.0
 30
0.0
  9
$PUCSORGLEFT
 10
0.0
 20
0.0
 30
0.0
  9
$PUCSORGRIGHT
 10
0.0
 20
0.0
 30
0.0
  9
$PUCSORGFRONT
 10
0.0
 20
0.0
 30
0.0
  9
$PUCSORGBACK
 10
0.0
 20
0.0
 30
0.0
  9
$USERI1
 70
     0
  9
$USERI2
 70
     0
  9
$USERI3
 70
     0
  9
$USERI4
 70
     0
  9
$USERI5
 70
     0
  9
$USERR1
 40
0.0
  9
$USERR2
 40
0.0
  9
$USERR3
 40
0.0
  9
$USERR4
 40
0.0
  9
$USERR5
 40
0.0
  9
$WORLDVIEW
 70
     0
  9
$SHADEDGE
 70
     3
  9
$SHADEDIF
 70
    70
  9
$TILEMODE
 70
     1
  9
$MAXACTVP
 70
    16
  9
$PINSBASE
 10
0.0
 20
0.0
 30
0.0
  9
$PLIMCHECK
 70
     0
  9
$PEXTMIN
 10
1.000000000000000E+20
 20
1.000000000000000E+20
 30
1.000000000000000E+20
  9
$PEXTMAX
 10
-1.000000000000000E+20
 20
-1.000000000000000E+20
 30
-1.000000000000000E+20
  9
$PLIMMIN
 10
0.0
 20
0.0
  9
$PLIMMAX
 10
420.0
 20
297.0
  9
$UNITMODE
 70
     0
  9
$VISRETAIN
 70
     0
  9
$PLINEGEN
 70
     0
  9
$PSLTSCALE
 70
     0
  9
$TREEDEPTH
 70
  3020
  9
$CMLSTYLE
  2
STANDARD
  9
$CMLJUST
 70
     0
  9
$CMLSCALE
 40
1.0
  9
$PROXYGRAPHICS
 70
     1
  9
$MEASUREMENT
 70
     0
  9
$CELWEIGHT
370
    -1
  9
$ENDCAPS
280
     0
  9
$JOINSTYLE
280
     0
  9
$LWDISPLAY
290
     0
  9
$INSUNITS
 70
     0
  9
$HYPERLINKBASE
  1

  9
$STYLESHEET
  1

  9
$XEDIT
290
     1
  9
$CEPSNTYPE
380
     0
  9
$PSTYLEMODE
290
     1
  9
$FINGERPRINTGUID
  2
{536176E2-9547-11D4-ADCB-0060081B4383}
  9
$VERSIONGUID
  2
{0F32B018-54DE-45D7-97FB-38A0584A4ACB}
  9
$EXTNAMES
290
     1
  9
$PSVPSCALE
 40
0.0
  9
$OLESTARTUP
290
     0
  9
$SORTENTS
280
   127
  9
$INDEXCTL
280
     0
  9
$HIDETEXT
280
     0
  9
$XCLIPFRAME
290
     0
  9
$HALOGAP
280
     0
  9
$OBSCOLOR
 70
   257
  9
$OBSLTYPE
280
     0
  9
$INTERSECTIONDISPLAY
280
     0
  9
$INTERSECTIONCOLOR
 70
   257
  9
$DIMASSOC
280
     1
  9
$PROJECTNAME
  1

  0
ENDSEC
  0
SECTION
  2
CLASSES
  0
CLASS
  1
DICTIONARYVAR
  2
AcDbDictionaryVar
  3
ObjectDBX Classes
 90
        0
 91
        2
280
     0
281
     0
  0
CLASS
  1
ACDBDICTIONARYWDFLT
  2
AcDbDictionaryWithDefault
  3
ObjectDBX Classes
 90
        0
 91
        1
280
     0
281
     0
  0
CLASS
  1
TABLESTYLE
  2
AcDbTableStyle
  3
ObjectDBX Classes
 90
     2047
 91
        1
280
     0
281
     0
  0
CLASS
  1
DIMASSOC
  2
AcDbDimAssoc
  3
"AcDbDimAssoc|Product Desc:     AcDim ARX App For Dimension|Company:          Autodesk, Inc.|WEB Address:      www.autodesk.com"
 90
        0
 91
        2
280
     0
281
     0
  0
CLASS
  1
SORTENTSTABLE
  2
AcDbSortentsTable
  3
ObjectDBX Classes
 90
        0
 91
        1
280
     0
281
     0
  0
ENDSEC
  0
SECTION
  2
TABLES
  0
TABLE
  2
VPORT
  5
8
330
0
100
AcDbSymbolTable
 70
     5
  0
VPORT
  5
518
330
8
100
AcDbSymbolTableRecord
100
AcDbViewportTableRecord
  2
*Active
 70
     0
 10
0.0
 20
0.0
 11
1.0
 21
1.0
 12
594.5156637720852
 22
420.5000058746763
 13
0.0
 23
0.0
 14
5.0
 24
5.0
 15
20.0
 25
20.0
 16
0.0
 26
0.0
 36
1.0
 17
0.0
 27
0.0
 37
0.0
 40
850.5827687785652
 41
1.753320683111954
 42
50.0
 43
0.0
 44
0.0
 50
0.0
 51
0.0
 71
     0
 72
  2000
 73
     1
 74
     2
 75
     0
 76
     0
 77
     0
 78
     1
281
     0
 65
     1
110
0.0
120
0.0
130
0.0
111
1.0
121
0.0
131
0.0
112
0.0
122
1.0
132
0.0
 79
     0
146
0.0
  0
ENDTAB
  0
TABLE
  2
LTYPE
  5
5
330
0
100
AcDbSymbolTable
 70
     8
  0
LTYPE
  5
11
330
5
100
AcDbSymbolTableRecord
100
AcDbLinetypeTableRecord
  2
BYBLOCK
 70
     0
  3

 72
    65
 73
     0
 40
0.0
  0
LTYPE
  5
12
330
5
100
AcDbSymbolTableRecord
100
AcDbLinetypeTableRecord
  2
BYLAYER
 70
     0
  3

 72
    65
 73
     0
 40
0.0
  0
LTYPE
  5
13
330
5
100
AcDbSymbolTableRecord
100
AcDbLinetypeTableRecord
  2
CONTINUOUS
 70
     0
  3
Solid line
 72
    65
 73
     0
 40
0.0
  0
LTYPE
  5
20
330
5
100
AcDbSymbolTableRecord
100
AcDbLinetypeTableRecord
  2
CENTER
 70
     0
  3
____ _ ____ _ ____ _ ____ _ ____ _ ____ _ ____ 
 72
    65
 73
     4
 40
50.0
 49
31.25
 74
     0
 49
-6.25
 74
     0
 49
6.25
 74
     0
 49
-6.25
 74
     0
  0
LTYPE
  5
10A
330
5
100
AcDbSymbolTableRecord
100
AcDbLinetypeTableRecord
  2
HIDDEN2
 70
     0
  3
Hidden (.5x) _ _ _ _ _ _ _ _ _ _ _ _ _ _ _ _ _
 72
    65
 73
     2
 40
0.1875
 49
0.125
 74
     0
 49
-0.0625
 74
     0
  0
LTYPE
  5
12A
330
5
100
AcDbSymbolTableRecord
100
AcDbLinetypeTableRecord
  2
CENTER2
 70
     0
  3
Center (.5x) ___ _ ___ _ ___ _ ___ _ ___ _ ___
 72
    65
 73
     4
 40
1.125
 49
0.75
 74
     0
 49
-0.125
 74
     0
 49
0.125
 74
     0
 49
-0.125
 74
     0
  0
LTYPE
  5
12B
330
5
100
AcDbSymbolTableRecord
100
AcDbLinetypeTableRecord
  2
HIDDENX2
 70
     0
  3
Hidden (2x) ____ ____ ____ ____ ____ ____ ____
 72
    65
 73
     2
 40
0.75
 49
0.5
 74
     0
 49
-0.25
 74
     0
  0
LTYPE
  5
12E
330
5
100
AcDbSymbolTableRecord
100
AcDbLinetypeTableRecord
  2
CENTERX2
 70
     0
  3
Center (2x) ________  __  ________  __  _____
 72
    65
 73
     4
 40
4.0
 49
2.5
 74
     0
 49
-0.5
 74
     0
 49
0.5
 74
     0
 49
-0.5
 74
     0
  0
LTYPE
  5
20A
330
5
100
AcDbSymbolTableRecord
100
AcDbLinetypeTableRecord
  2
ACAD_ISO04W100
 70
     0
  3
ISO long-dash dot ____ . ____ . ____ . ____ . _
 72
    65
 73
     4
 40
30.0
 49
24.0
 74
     0
 49
-3.0
 74
     0
 49
0.0
 74
     0
 49
-3.0
 74
     0
  0
LTYPE
  5
20B
330
5
100
AcDbSymbolTableRecord
100
AcDbLinetypeTableRecord
  2
CENTRE
 70
     0
  3
____ _ ____ _ ____ _ ____ _ ____ _ ____ _ ____
 72
    65
 73
     4
 40
2.0
 49
1.25
 74
     0
 49
-0.25
 74
     0
 49
0.25
 74
     0
 49
-0.25
 74
     0
  0
ENDTAB
  0
TABLE
  2
LAYER
  5
2
102
{ACAD_XDICTIONARY
360
215
102
}
330
0
100
AcDbSymbolTable
 70
    17
  0
LAYER
  5
E
330
2
100
AcDbSymbolTableRecord
100
AcDbLayerTableRecord
  2
0
 70
     0
 62
     7
  6
CONTINUOUS
370
    -3
390
D0
  0
LAYER
  5
23
330
2
100
AcDbSymbolTableRecord
100
AcDbLayerTableRecord
  2
BOX
 70
     0
 62
     3
  6
CONTINUOUS
370
    -3
390
D0
  0
LAYER
  5
24
330
2
100
AcDbSymbolTableRecord
100
AcDbLayerTableRecord
  2
BOR
 70
     0
 62
     4
  6
CONTINUOUS
370
    -3
390
D0
  0
LAYER
  5
25
330
2
100
AcDbSymbolTableRecord
100
AcDbLayerTableRecord
  2
CL
 70
     0
 62
     1
  6
CENTERX2
370
    -3
390
D0
  0
LAYER
  5
26
330
2
100
AcDbSymbolTableRecord
100
AcDbLayerTableRecord
  2
DIM
 70
     0
 62
     4
  6
CONTINUOUS
370
    -3
390
D0
  0
LAYER
  5
27
330
2
100
AcDbSymbolTableRecord
100
AcDbLayerTableRecord
  2
TEX
 70
     0
 62
     3
  6
CONTINUOUS
370
    -3
390
D0
  0
LAYER
  5
28
330
2
100
AcDbSymbolTableRecord
100
AcDbLayerTableRecord
  2
BORDER
 70
     0
 62
     3
  6
CONTINUOUS
370
    -3
390
D0
  0
LAYER
  5
D8
330
2
100
AcDbSymbolTableRecord
100
AcDbLayerTableRecord
  2
Defpoints
 70
     0
 62
     7
  6
CONTINUOUS
290
     0
370
    -3
390
D0
  0
LAYER
  5
10B
330
2
100
AcDbSymbolTableRecord
100
AcDbLayerTableRecord
  2
OUT57
 70
     0
 62
     7
  6
CONTINUOUS
370
    -3
390
D0
  0
LAYER
  5
10C
330
2
100
AcDbSymbolTableRecord
100
AcDbLayerTableRecord
  2
OUT56
 70
     0
 62
     6
  6
CONTINUOUS
370
    -3
390
D0
  0
LAYER
  5
10D
330
2
100
AcDbSymbolTableRecord
100
AcDbLayerTableRecord
  2
HID
 70
     0
 62
     5
  6
HIDDENX2
370
    -3
390
D0
  0
LAYER
  5
118
330
2
100
AcDbSymbolTableRecord
100
AcDbLayerTableRecord
  2
DIM34
 70
     0
 62
     3
  6
CONTINUOUS
370
    -3
390
D0
  0
LAYER
  5
137
330
2
100
AcDbSymbolTableRecord
100
AcDbLayerTableRecord
  2
TXT34
 70
     0
 62
   255
  6
CONTINUOUS
370
    -3
390
D0
  0
LAYER
  5
138
330
2
100
AcDbSymbolTableRecord
100
AcDbLayerTableRecord
  2
BOR34
 70
     0
 62
     3
  6
CONTINUOUS
370
    -3
390
D0
  0
LAYER
  5
145
330
2
100
AcDbSymbolTableRecord
100
AcDbLayerTableRecord
  2
BOR715
 70
     0
 62
    15
  6
CONTINUOUS
370
    -3
390
D0
  0
LAYER
  5
20C
330
2
100
AcDbSymbolTableRecord
100
AcDbLayerTableRecord
  2
CTR34
 70
     0
 62
     1
  6
CENTRE
370
    -3
390
D0
  0
LAYER
  5
20D
330
2
100
AcDbSymbolTableRecord
100
AcDbLayerTableRecord
  2
OUT53
 70
     0
 62
     3
  6
CONTINUOUS
370
    -3
390
D0
  0
ENDTAB
  0
TABLE
  2
STYLE
  5
3
330
0
100
AcDbSymbolTable
 70
     5
  0
STYLE
  5
F
330
3
100
AcDbSymbolTableRecord
100
AcDbTextStyleTableRecord
  2
STANDARD
 70
     0
 40
0.0
 41
1.0
 50
0.0
 71
     0
 42
3.0
  3
SIMPLEX
  4

  0
STYLE
  5
1E
330
3
100
AcDbSymbolTableRecord
100
AcDbTextStyleTableRecord
  2
SIMPLEX
 70
     0
 40
3.0
 41
1.0
 50
0.0
 71
     0
 42
3.0
  3
simplex
  4

  0
STYLE
  5
1F
330
3
100
AcDbSymbolTableRecord
100
AcDbTextStyleTableRecord
  2
COMPLEX
 70
     0
 40
3.0
 41
1.0
 50
0.0
 71
     0
 42
3.0
  3
complex
  4

  0
STYLE
  5
109
330
3
100
AcDbSymbolTableRecord
100
AcDbTextStyleTableRecord
  2

 70
     1
 40
0.0
 41
1.0
 50
0.0
 71
     0
 42
3.0
  3
ltypeshp.shx
  4

  0
STYLE
  5
139
330
3
100
AcDbSymbolTableRecord
100
AcDbTextStyleTableRecord
  2
ITALICC
 70
     0
 40
3.0
 41
1.0
 50
15.0
 71
     0
 42
3.0
  3
ITALICC
  4

  0
ENDTAB
  0
TABLE
  2
VIEW
  5
6
330
0
100
AcDbSymbolTable
 70
     0
  0
ENDTAB
  0
TABLE
  2
UCS
  5
7
330
0
100
AcDbSymbolTable
 70
     0
  0
ENDTAB
  0
TABLE
  2
APPID
  5
9
330
0
100
AcDbSymbolTable
 70
     7
  0
APPID
  5
10
330
9
100
AcDbSymbolTableRecord
100
AcDbRegAppTableRecord
  2
ACAD
 70
     0
  0
APPID
  5
20F
330
9
100
AcDbSymbolTableRecord
100
AcDbRegAppTableRecord
  2
ACAD_PSEXT
 70
     0
  0
APPID
  5
210
330
9
100
AcDbSymbolTableRecord
100
AcDbRegAppTableRecord
  2
AcAecLayerStandard
 70
     0
  0
APPID
  5
211
330
9
100
AcDbSymbolTableRecord
100
AcDbRegAppTableRecord
  2
ACAD_DSTYLE_DIMEXT_LENGTH
 70
     0
  0
APPID
  5
212
330
9
100
AcDbSymbolTableRecord
100
AcDbRegAppTableRecord
  2
ACAD_DSTYLE_DIMEXT_ENABLED
 70
     0
  0
APPID
  5
213
330
9
100
AcDbSymbolTableRecord
100
AcDbRegAppTableRecord
  2
ACAD_DSTYLE_DIMJOGGED_JOGANGLE_SYMBOL
 70
     0
  0
APPID
  5
214
330
9
100
AcDbSymbolTableRecord
100
AcDbRegAppTableRecord
  2
ACAD_DSTYLE_DIMARC_LENGTH_SYMBOL
 70
     0
  0
ENDTAB
  0
TABLE
  2
DIMSTYLE
  5
A
330
0
100
AcDbSymbolTable
 70
     2
100
AcDbDimStyleTable
 71
     1
340
CB
  0
DIMSTYLE
105
CB
330
A
100
AcDbSymbolTableRecord
100
AcDbDimStyleTableRecord
  2
STANDARD
 70
     0
340
F
  0
DIMSTYLE
105
20E
102
{ACAD_REACTORS
330
361
330
362
330
364
102
}
330
A
100
AcDbSymbolTableRecord
100
AcDbDimStyleTableRecord
  2
ISO-25
 70
     0
 41
4.0
 42
0.625
 43
20.0
 44
1.25
 73
     0
 74
     0
 77
     1
 78
     8
140
10.0
141
2.5
143
0.03937007874016
147
5.0
171
     3
172
     1
179
     2
271
     0
272
     0
274
     3
278
    44
283
     0
284
     8
340
F
1001
ACAD_DSTYLE_DIMEXT_LENGTH
1070
   378
1040
1.25
1001
ACAD_DSTYLE_DIMEXT_ENABLED
1070
   383
1070
     0
1001
ACAD_DSTYLE_DIMARC_LENGTH_SYMBOL
1070
   379
1070
     0
1001
ACAD_DSTYLE_DIMJOGGED_JOGANGLE_SYMBOL
1070
   384
1040
1.570796326794896
  0
ENDTAB
  0
TABLE
  2
BLOCK_RECORD
  5
1
330
0
100
AcDbSymbolTable
 70
    11
  0
BLOCK_RECORD
  5
17
330
1
100
AcDbSymbolTableRecord
100
AcDbBlockTableRecord
  2
*MODEL_SPACE
340
D3
  0
BLOCK_RECORD
  5
14
330
1
100
AcDbSymbolTableRecord
100
AcDbBlockTableRecord
  2
*PAPER_SPACE
340
D4
  0
BLOCK_RECORD
  5
1C
330
1
100
AcDbSymbolTableRecord
100
AcDbBlockTableRecord
  2
PROJ
340
0
  0
BLOCK_RECORD
  5
1D
330
1
100
AcDbSymbolTableRecord
100
AcDbBlockTableRecord
  2
LIMS
340
0
  0
BLOCK_RECORD
  5
119
330
1
100
AcDbSymbolTableRecord
100
AcDbBlockTableRecord
  2
thingy
340
0
  0
BLOCK_RECORD
  5
146
330
1
100
AcDbSymbolTableRecord
100
AcDbBlockTableRecord
  2
A$C507B7FE8
340
0
  0
BLOCK_RECORD
  5
1E1
330
1
100
AcDbSymbolTableRecord
100
AcDbBlockTableRecord
  2
*D4
340
0
  0
BLOCK_RECORD
  5
1ED
330
1
100
AcDbSymbolTableRecord
100
AcDbBlockTableRecord
  2
*D5
340
0
  0
BLOCK_RECORD
  5
1F9
330
1
100
AcDbSymbolTableRecord
100
AcDbBlockTableRecord
  2
*D6
340
0
  0
BLOCK_RECORD
  5
4BB
330
1
100
AcDbSymbolTableRecord
100
AcDbBlockTableRecord
  2
*D8
340
0
  0
BLOCK_RECORD
  5
4C7
330
1
100
AcDbSymbolTableRecord
100
AcDbBlockTableRecord
  2
*D9
340
0
  0
BLOCK_RECORD
  5
4E5
330
1
100
AcDbSymbolTableRecord
100
AcDbBlockTableRecord
  2
*D10
340
0
  0
ENDTAB
  0
ENDSEC
  0
SECTION
  2
BLOCKS
  0
BLOCK
  5
2B
330
17
100
AcDbEntity
  8
0
100
AcDbBlockBegin
  2
*MODEL_SPACE
 70
     0
 10
0.0
 20
0.0
 30
0.0
  3
*MODEL_SPACE
  1

  0
ENDBLK
  5
2C
330
17
100
AcDbEntity
  8
0
100
AcDbBlockEnd
  0
BLOCK
  5
29
330
14
100
AcDbEntity
 67
     1
  8
0
100
AcDbBlockBegin
  2
*PAPER_SPACE
 70
     0
 10
0.0
 20
0.0
 30
0.0
  3
*PAPER_SPACE
  1

  0
ENDBLK
  5
2A
330
14
100
AcDbEntity
 67
     1
  8
0
100
AcDbBlockEnd
  0
BLOCK
  5
2F
330
1C
100
AcDbEntity
  8
0
100
AcDbBlockBegin
  2
PROJ
 70
     0
 10
0.0
 20
0.0
 30
0.0
  3
PROJ
  1

  0
LINE
  5
30
330
1C
100
AcDbEntity
  8
CL
100
AcDbLine
 10
47.2547562526295
 20
-5.369046961082631
 30
0.0
 11
51.34912778718113
 21
-5.369046961082631
 31
0.0
  0
LINE
  5
31
330
1C
100
AcDbEntity
  8
CL
100
AcDbLine
 10
51.64111266167975
 20
-5.369046961082631
 30
0.0
 11
52.23078367631398
 21
-5.369046961082631
 31
0.0
  0
LINE
  5
32
330
1C
100
AcDbEntity
  8
CL
100
AcDbLine
 10
52.52276855081259
 20
-5.369046961082631
 30
0.0
 11
56.61714008536424
 21
-5.369046961082631
 31
0.0
  0
LINE
  5
33
330
1C
100
AcDbEntity
  8
CL
100
AcDbLine
 10
38.0535373502579
 20
-5.955867342898386
 30
0.0
 11
38.0535373502579
 21
-10.05023887744994
 31
0.0
  0
LINE
  5
34
330
1C
100
AcDbEntity
  8
CL
100
AcDbLine
 10
37.75870184294079
 20
-5.369046961082631
 30
0.0
 11
38.34837285757501
 21
-5.369046961082631
 31
0.0
  0
LINE
  5
35
330
1C
100
AcDbEntity
  8
CL
100
AcDbLine
 10
38.0535373502579
 20
-5.074211453765542
 30
0.0
 11
38.0535373502579
 21
-5.663882468399719
 31
0.0
  0
LINE
  5
36
330
1C
100
AcDbEntity
  8
CL
100
AcDbLine
 10
38.64035773207362
 20
-5.369046961082631
 30
0.0
 11
42.73472926662527
 21
-5.369046961082631
 31
0.0
  0
LINE
  5
37
330
1C
100
AcDbEntity
  8
CL
100
AcDbLine
 10
38.0535373502579
 20
-0.6878550447153203
 30
0.0
 11
38.0535373502579
 21
-4.782226579266875
 31
0.0
  0
LINE
  5
38
330
1C
100
AcDbEntity
  8
CL
100
AcDbLine
 10
33.37234543389053
 20
-5.369046961082631
 30
0.0
 11
37.46671696844217
 21
-5.369046961082631
 31
0.0
  0
CIRCLE
  5
39
330
1C
100
AcDbEntity
  8
TEX
100
AcDbCircle
 10
38.0535373502579
 20
-5.369046961082631
 30
0.0
 40
4.0
  0
CIRCLE
  5
3A
330
1C
100
AcDbEntity
  8
TEX
100
AcDbCircle
 10
38.0535373502579
 20
-5.369046961082631
 30
0.0
 40
2.0
  0
LINE
  5
3B
330
1C
100
AcDbEntity
  8
TEX
100
AcDbLine
 10
48.00640284369579
 20
-7.369046961082517
 30
0.0
 11
48.00640284369579
 21
-3.343735453992053
 31
0.0
  0
LINE
  5
3C
330
1C
100
AcDbEntity
  8
TEX
100
AcDbLine
 10
56.06899543334121
 20
-9.369046961082631
 30
0.0
 11
56.06899543334121
 21
-1.492022076080502
 31
0.0
  0
LINE
  5
3D
330
1C
100
AcDbEntity
  8
TEX
100
AcDbLine
 10
48.00640284369579
 20
-7.369046961082517
 30
0.0
 11
56.06899543334121
 21
-9.369046961082631
 31
0.0
  0
LINE
  5
3E
330
1C
100
AcDbEntity
  8
TEX
100
AcDbLine
 10
48.00640284369579
 20
-3.343735453992053
 30
0.0
 11
56.06899543334121
 21
-1.492022076080502
 31
0.0
  0
TEXT
  5
3F
330
1C
100
AcDbEntity
  8
TEX
100
AcDbText
 10
2.888889778631549
 20
-6.898189987468413
 30
0.0
 40
3.0
  1
PROJECTION
  7
COMPLEX
100
AcDbText
  0
LINE
  5
41
330
1C
100
AcDbEntity
  8
BORDER
100
AcDbLine
 10
58.86838520522085
 20
0.0
 30
0.0
 11
58.86838520522085
 21
-10.7901659353995
 31
0.0
  0
LINE
  5
42
330
1C
100
AcDbEntity
  8
BORDER
100
AcDbLine
 10
58.86838520522085
 20
-10.7901659353995
 30
0.0
 11
0.0000000000000018
 21
-10.7901659353995
 31
0.0
  0
ENDBLK
  5
43
330
1C
100
AcDbEntity
  8
0
100
AcDbBlockEnd
  0
BLOCK
  5
44
330
1D
100
AcDbEntity
  8
0
100
AcDbBlockBegin
  2
LIMS
 70
     2
 10
0.0
 20
0.0
 30
0.0
  3
LIMS
  1

  0
ATTDEF
  5
45
330
1D
100
AcDbEntity
  8
0
100
AcDbText
 10
79.49342504865509
 20
32.11443810754941
 30
0.0
 40
2.4
  1
X.    = %%P 1.0
100
AcDbAttributeDefinition
  3
Limits (0 DEC) :
  2
DEC01
 70
     0
  0
ATTDEF
  5
47
330
1D
100
AcDbEntity
  8
0
100
AcDbText
 10
79.49342504865509
 20
28.0001523932637
 30
0.0
 40
2.4
  1
X.X   = %%P 0.5
100
AcDbAttributeDefinition
  3
Limits (1 DEC) :
  2
DEC02
 70
     0
  0
ATTDEF
  5
48
330
1D
100
AcDbEntity
  8
0
100
AcDbText
 10
79.49342504865509
 20
23.88586667897799
 30
0.0
 40
2.4
  1
X.XX  = %%P 0.25
100
AcDbAttributeDefinition
  3
Limits (2 DEC) :
  2
DEC03
 70
     0
  0
ATTDEF
  5
49
330
1D
100
AcDbEntity
  8
0
100
AcDbText
 10
79.49342504865509
 20
19.77158096469228
 30
0.0
 40
2.4
  1
X.XXX = %%P 0.12
100
AcDbAttributeDefinition
  3
Limits (3 DEC) :
  2
DEC04
 70
     0
  0
ATTDEF
  5
4A
330
1D
100
AcDbEntity
  8
0
100
AcDbText
 10
130.0525608443425
 20
25.1951866867006
 30
0.0
 40
3.0
  1
%%P 1%%D
100
AcDbAttributeDefinition
  3
Limits (angular) :
  2
ANG01
 70
     0
  0
ENDBLK
  5
4B
330
1D
100
AcDbEntity
  8
0
100
AcDbBlockEnd
  0
BLOCK
  5
11D
330
119
100
AcDbEntity
  8
0
100
AcDbBlockBegin
  2
thingy
 70
     0
 10
0.0
 20
0.0
 30
0.0
  3
thingy
  1

  0
TEXT
  5
11A
330
119
100
AcDbEntity
  8
DIM34
100
AcDbText
 10
3.887704180664172
 20
4.008459698531169
 30
0.0
 40
4.0
  1
Isopad House, Shenley Road, Borehamwood, Herts WD6 1TE
100
AcDbText
  0
TEXT
  5
11B
330
119
100
AcDbEntity
  8
DIM34
 62
     3
100
AcDbText
 10
3.140009881608079
 20
12.6624032453733
 30
0.0
 40
5.0
  1
Safety 1st Europe
 11
3.140009881608079
 21
17.6624032453733
 31
0.0
100
AcDbText
 73
     3
  0
TEXT
  5
11C
330
119
100
AcDbEntity
  8
DIM34
100
AcDbText
 10
79.51265465995231
 20
12.91945439185406
 30
0.0
 40
3.0
  1
TEL +44(0)20 8236 0707 fAX +44(0)20 8236 0770
100
AcDbText
  0
ENDBLK
  5
11E
330
119
100
AcDbEntity
  8
0
100
AcDbBlockEnd
  0
BLOCK
  5
155
330
146
100
AcDbEntity
  8
0
100
AcDbBlockBegin
  2
A$C507B7FE8
 70
     0
 10
0.0
 20
0.0
 30
0.0
  3
A$C507B7FE8
  1

  0
LINE
  5
147
330
146
100
AcDbEntity
  8
BOR715
 62
    15
100
AcDbLine
 10
0.000268786193601
 20
41.22128114004829
 30
0.0
 11
155.9658687861931
 21
41.22128114004829
 31
0.0
  0
TEXT
  5
148
330
146
100
AcDbEntity
  8
TXT34
 62
     3
100
AcDbText
 10
117.1992147528627
 20
36.9251889848706
 30
0.0
 40
3.0
  1
SHT
100
AcDbText
  0
TEXT
  5
149
330
146
100
AcDbEntity
  8
TXT34
 62
     3
100
AcDbText
 10
133.1635578541245
 20
37.00384869192715
 30
0.0
 40
3.0
  1
OF  SHTS
100
AcDbText
  0
TEXT
  5
14A
330
146
100
AcDbEntity
  8
TXT34
 62
     3
100
AcDbText
 10
126.3313345885509
 20
21.31487766178634
 30
0.0
 40
2.5
  1
C.A.D. file ref
100
AcDbText
  0
TEXT
  5
14B
330
146
100
AcDbEntity
  8
TXT34
 62
     3
100
AcDbText
 10
96.51057997072099
 20
8.956650329520243
 30
0.0
 40
3.5
  1
SCALE
100
AcDbText
  0
TEXT
  5
14C
330
146
100
AcDbEntity
  8
TXT34
 62
     3
100
AcDbText
 10
96.37457141806521
 20
-0.0000205094302146
 30
0.0
 40
3.5
  1
DRAWN
100
AcDbText
  0
LINE
  5
14D
330
146
100
AcDbEntity
  8
BOR715
 62
    15
100
AcDbLine
 10
124.0951116150784
 20
15.36198956477813
 30
0.0
 11
124.0951116150784
 21
25.77274176338335
 31
0.0
  0
LINE
  5
14E
330
146
100
AcDbEntity
  8
BOR715
 62
    15
100
AcDbLine
 10
0.000268786193601
 20
25.77274176338335
 30
0.0
 11
155.9658687861931
 21
25.77274176338335
 31
0.0
  0
LINE
  5
14F
330
146
100
AcDbEntity
  8
BOR715
 62
    15
100
AcDbLine
 10
0.000268786193601
 20
15.36198956477813
 30
0.0
 11
155.9658687861931
 21
15.36198956477813
 31
0.0
  0
LINE
  5
150
330
146
100
AcDbEntity
  8
BOR715
 62
    15
100
AcDbLine
 10
0.000268786193601
 20
7.579364199718042
 30
0.0
 11
155.9658687861931
 21
7.579364199718042
 31
0.0
  0
TEXT
  5
151
330
146
100
AcDbEntity
  8
TXT34
 62
     3
100
AcDbText
 10
1.722268786193353
 20
0.9781497552065729
 30
0.0
 40
3.5
  1
FINISH
100
AcDbText
  0
TEXT
  5
152
330
146
100
AcDbEntity
  8
TXT34
 62
     3
100
AcDbText
 10
1.841906183829564
 20
8.942378738824686
 30
0.0
 40
3.5
  1
MAT'L.
100
AcDbText
  0
TEXT
  5
153
330
146
100
AcDbEntity
  8
TXT34
 62
     3
100
AcDbText
 10
1.108469051580641
 20
17.93741218972343
 30
0.0
 40
3.5
  1
DWG No.
100
AcDbText
  0
TEXT
  5
154
330
146
100
AcDbEntity
  8
TXT34
 62
     3
100
AcDbText
 10
1.283166805179689
 20
36.16923725778236
 30
0.0
 40
3.5
  1
TITLE
100
AcDbText
  0
ENDBLK
  5
156
330
146
100
AcDbEntity
  8
0
100
AcDbBlockEnd
  0
BLOCK
  5
1E2
330
1E1
100
AcDbEntity
  8
0
370
    25
100
AcDbBlockBegin
  2
*D4
 70
     1
 10
0.0
 20
0.0
 30
0.0
  3
*D4
  1

  0
LINE
  5
1E3
330
1E1
100
AcDbEntity
  8
OUT53
 62
     0
370
    -2
100
AcDbLine
 10
4216.793166925961
 20
-203.5364991798383
 30
0.0
 11
4216.793166925961
 21
-215.8573273340025
 31
0.0
  0
LINE
  5
1E4
330
1E1
100
AcDbEntity
  8
OUT53
 62
     0
370
    -2
100
AcDbLine
 10
4471.792005546138
 20
-203.536499179836
 30
0.0
 11
4471.792005546138
 21
-215.8573273340025
 31
0.0
  0
LINE
  5
1E5
330
1E1
100
AcDbEntity
  8
OUT53
 62
     0
370
    -2
100
AcDbLine
 10
4220.793166925961
 20
-214.6073273340026
 30
0.0
 11
4467.792005546138
 21
-214.6073273340026
 31
0.0
  0
SOLID
  5
1E6
330
1E1
100
AcDbEntity
  8
OUT53
 62
     0
370
    25
100
AcDbTrace
 10
4220.793166925961
 20
-213.9406606673359
 30
0.0
 11
4220.793166925961
 21
-215.2739940006692
 31
0.0
 12
4216.793166925961
 22
-214.6073273340026
 32
0.0
 13
4216.793166925961
 23
-214.6073273340026
 33
0.0
  0
SOLID
  5
1E7
330
1E1
100
AcDbEntity
  8
OUT53
 62
     0
370
    25
100
AcDbTrace
 10
4467.792005546138
 20
-213.9406606673359
 30
0.0
 11
4467.792005546138
 21
-215.2739940006692
 31
0.0
 12
4471.792005546138
 22
-214.6073273340026
 32
0.0
 13
4471.792005546138
 23
-214.6073273340026
 33
0.0
  0
MTEXT
  5
1E8
330
1E1
100
AcDbEntity
  8
OUT53
 62
     0
370
    25
100
AcDbMText
 10
4344.29258623605
 20
-204.1709267927306
 30
0.0
 40
10.0
 41
0.0
 71
     5
 72
     1
  1
255
 73
     1
 44
1.0
  0
POINT
  5
1E9
330
1E1
100
AcDbEntity
  8
Defpoints
 62
     0
370
    25
100
AcDbPoint
 10
4216.793166925961
 20
-202.9114991798383
 30
0.0
  0
POINT
  5
1EA
330
1E1
100
AcDbEntity
  8
Defpoints
 62
     0
370
    25
100
AcDbPoint
 10
4471.792005546138
 20
-202.911499179836
 30
0.0
  0
POINT
  5
1EB
330
1E1
100
AcDbEntity
  8
Defpoints
 62
     0
370
    25
100
AcDbPoint
 10
4471.792005546138
 20
-214.6073273340026
 30
0.0
  0
ENDBLK
  5
1EC
330
1E1
100
AcDbEntity
  8
0
370
    25
100
AcDbBlockEnd
  0
BLOCK
  5
1EE
330
1ED
100
AcDbEntity
  8
0
370
    25
100
AcDbBlockBegin
  2
*D5
 70
     1
 10
0.0
 20
0.0
 30
0.0
  3
*D5
  1

  0
LINE
  5
1EF
330
1ED
100
AcDbEntity
  8
OUT53
 62
     0
370
    -2
100
AcDbLine
 10
4216.793166925961
 20
-203.5364991798383
 30
0.0
 11
4216.793166925961
 21
-235.8573273340025
 31
0.0
  0
LINE
  5
1F0
330
1ED
100
AcDbEntity
  8
OUT53
 62
     0
370
    -2
100
AcDbLine
 10
4485.500658282271
 20
-203.5315495309708
 30
0.0
 11
4485.500658282271
 21
-235.8573273340025
 31
0.0
  0
LINE
  5
1F1
330
1ED
100
AcDbEntity
  8
OUT53
 62
     0
370
    -2
100
AcDbLine
 10
4220.793166925961
 20
-234.6073273340025
 30
0.0
 11
4481.50065828227
 21
-234.6073273340025
 31
0.0
  0
SOLID
  5
1F2
330
1ED
100
AcDbEntity
  8
OUT53
 62
     0
370
    25
100
AcDbTrace
 10
4220.793166925961
 20
-233.9406606673359
 30
0.0
 11
4220.793166925961
 21
-235.2739940006692
 31
0.0
 12
4216.793166925961
 22
-234.6073273340025
 32
0.0
 13
4216.793166925961
 23
-234.6073273340025
 33
0.0
  0
SOLID
  5
1F3
330
1ED
100
AcDbEntity
  8
OUT53
 62
     0
370
    25
100
AcDbTrace
 10
4481.50065828227
 20
-233.9406606673359
 30
0.0
 11
4481.50065828227
 21
-235.2739940006692
 31
0.0
 12
4485.500658282271
 22
-234.6073273340025
 32
0.0
 13
4485.500658282271
 23
-234.6073273340025
 33
0.0
  0
MTEXT
  5
1F4
330
1ED
100
AcDbEntity
  8
OUT53
 62
     0
370
    25
100
AcDbMText
 10
4351.146912604115
 20
-224.0220769957076
 30
0.0
 40
10.0
 41
0.0
 71
     5
 72
     1
  1
269
 73
     1
 44
1.0
  0
POINT
  5
1F5
330
1ED
100
AcDbEntity
  8
Defpoints
 62
     0
370
    25
100
AcDbPoint
 10
4216.793166925961
 20
-202.9114991798383
 30
0.0
  0
POINT
  5
1F6
330
1ED
100
AcDbEntity
  8
Defpoints
 62
     0
370
    25
100
AcDbPoint
 10
4485.500658282271
 20
-202.9065495309708
 30
0.0
  0
POINT
  5
1F7
330
1ED
100
AcDbEntity
  8
Defpoints
 62
     0
370
    25
100
AcDbPoint
 10
4485.500658282271
 20
-234.6073273340025
 30
0.0
  0
ENDBLK
  5
1F8
330
1ED
100
AcDbEntity
  8
0
370
    25
100
AcDbBlockEnd
  0
BLOCK
  5
1FA
330
1F9
100
AcDbEntity
  8
0
370
    25
100
AcDbBlockBegin
  2
*D6
 70
     1
 10
0.0
 20
0.0
 30
0.0
  3
*D6
  1

  0
LINE
  5
1FB
330
1F9
100
AcDbEntity
  8
DIM
 62
     0
370
    -2
100
AcDbLine
 10
4259.449750080405
 20
-110.7793235082429
 30
0.0
 11
4271.105208640733
 21
-110.7793235082429
 31
0.0
  0
ARC
  5
1FC
330
1F9
100
AcDbEntity
  8
DIM
 62
     0
370
    -2
100
AcDbCircle
 10
4218.319261464161
 20
-110.7793235082429
 30
0.0
 40
51.53594717657305
100
AcDbArc
 50
346.856861485319
 51
355.7599229091836
  0
LINE
  5
1FD
330
1F9
100
AcDbEntity
  8
DIM
 62
     0
370
    -2
100
AcDbLine
 10
4268.505226741093
 20
-122.4978021044117
 30
0.0
 11
4258.485229247323
 21
-165.4097929546358
 31
0.0
  0
ARC
  5
1FE
330
1F9
100
AcDbEntity
  8
DIM
 62
     0
370
    -2
100
AcDbCircle
 10
4218.319261464161
 20
-110.7793235082429
 30
0.0
 40
51.53594717657305
100
AcDbArc
 50
346.8635817525247
 51
351.3117523308542
  0
ARC
  5
1FF
330
1F9
100
AcDbEntity
  8
DIM
 62
     0
370
    -2
100
AcDbCircle
 10
4218.319261464161
 20
-110.7793235082429
 30
0.0
 40
51.53594717657305
100
AcDbArc
 50
4.448170578329424
 51
8.896341156658928
  0
ARC
  5
200
330
1F9
100
AcDbEntity
  8
DIM
 62
     0
370
    -2
100
AcDbCircle
 10
4218.319261464161
 20
-110.7793235082429
 30
0.0
 40
51.53594717657305
100
AcDbArc
 50
355.7599229091836
 51
0.0
  0
SOLID
  5
201
330
1F9
100
AcDbEntity
  8
DIM
 62
     0
370
    25
100
AcDbTrace
 10
4268.601399777123
 20
-118.4891892390031
 30
0.0
 11
4269.926256401344
 21
-118.6392982095406
 31
0.0
 12
4269.714155000847
 22
-114.5896738516092
 32
0.0
 13
4269.714155000847
 23
-114.5896738516092
 33
0.0
  0
SOLID
  5
202
330
1F9
100
AcDbEntity
  8
DIM
 62
     0
370
    25
100
AcDbTrace
 10
4270.366141647748
 20
-106.7564648347637
 30
0.0
 11
4269.033812726241
 21
-106.8082086526765
 31
0.0
 12
4269.855208640732
 22
-110.7793235082429
 32
0.0
 13
4269.855208640732
 23
-110.7793235082429
 33
0.0
  0
MTEXT
  5
203
330
1F9
100
AcDbEntity
  8
DIM
 62
     0
370
    25
100
AcDbMText
 10
4252.353791401589
 20
-141.352259718689
 30
0.0
 40
10.0
 41
0.0
 71
     5
 72
     1
  1
4,24°
 11
0.2273845585105634
 21
0.9738050433998358
 31
0.0
 73
     1
 44
1.0
  0
POINT
  5
204
330
1F9
100
AcDbEntity
  8
Defpoints
 62
     0
370
    25
100
AcDbPoint
 10
4269.839529654618
 20
-112.0504714028328
 30
0.0
  0
POINT
  5
205
330
1F9
100
AcDbEntity
  8
Defpoints
 62
     0
370
    25
100
AcDbPoint
 10
4218.31926146416
 20
-110.7793235082428
 30
0.0
  0
POINT
  5
206
330
1F9
100
AcDbEntity
  8
Defpoints
 62
     0
370
    25
100
AcDbPoint
 10
4218.31926146416
 20
-110.7793235082429
 30
0.0
  0
POINT
  5
207
330
1F9
100
AcDbEntity
  8
Defpoints
 62
     0
370
    25
100
AcDbPoint
 10
4258.824750080406
 20
-110.7793235082429
 30
0.0
  0
POINT
  5
208
330
1F9
100
AcDbEntity
  8
Defpoints
 62
     0
370
    25
100
AcDbPoint
 10
4757.417828124338
 20
-150.7473877890958
 30
0.0
  0
ENDBLK
  5
209
330
1F9
100
AcDbEntity
  8
0
370
    25
100
AcDbBlockEnd
  0
BLOCK
  5
4C5
330
4BB
100
AcDbEntity
  8
0
100
AcDbBlockBegin
  2
*D8
 70
     1
 10
0.0
 20
0.0
 30
0.0
  3
*D8
  1

  0
LINE
  5
4F6
330
4BB
100
AcDbEntity
  8
OUT53
 62
     0
370
    -2
100
AcDbLine
 10
301.8492520321834
 20
614.6993774672068
 30
0.0
 11
301.8492520321834
 21
602.3785493130426
 31
0.0
  0
LINE
  5
4F7
330
4BB
100
AcDbEntity
  8
OUT53
 62
     0
370
    -2
100
AcDbLine
 10
556.8480906523595
 20
614.6993774672091
 30
0.0
 11
556.8480906523595
 21
602.3785493130426
 31
0.0
  0
LINE
  5
4F8
330
4BB
100
AcDbEntity
  8
OUT53
 62
     0
370
    -2
100
AcDbLine
 10
305.8492520321834
 20
603.6285493130426
 30
0.0
 11
552.8480906523595
 21
603.6285493130426
 31
0.0
  0
SOLID
  5
4F9
330
4BB
100
AcDbEntity
  8
OUT53
 62
     0
100
AcDbTrace
 10
305.8492520321834
 20
604.2952159797092
 30
0.0
 11
305.8492520321834
 21
602.961882646376
 31
0.0
 12
301.8492520321834
 22
603.6285493130426
 32
0.0
 13
301.8492520321834
 23
603.6285493130426
 33
0.0
  0
SOLID
  5
4FA
330
4BB
100
AcDbEntity
  8
OUT53
 62
     0
100
AcDbTrace
 10
552.8480906523595
 20
604.2952159797092
 30
0.0
 11
552.8480906523595
 21
602.961882646376
 31
0.0
 12
556.8480906523595
 22
603.6285493130426
 32
0.0
 13
556.8480906523595
 23
603.6285493130426
 33
0.0
  0
MTEXT
  5
4FB
330
4BB
100
AcDbEntity
  8
OUT53
 62
     0
370
    25
100
AcDbMText
 10
429.3486713422715
 20
613.6285493130426
 30
0.0
 40
10.0
 41
0.0
 71
     5
 72
     1
  1
255
 73
     1
 44
1.0
  0
POINT
  5
4FC
330
4BB
100
AcDbEntity
  8
Defpoints
 62
     0
100
AcDbPoint
 10
301.8492520321834
 20
615.3243774672069
 30
0.0
  0
POINT
  5
4FD
330
4BB
100
AcDbEntity
  8
Defpoints
 62
     0
100
AcDbPoint
 10
556.8480906523595
 20
615.3243774672091
 30
0.0
  0
POINT
  5
4FE
330
4BB
100
AcDbEntity
  8
Defpoints
 62
     0
100
AcDbPoint
 10
556.8480906523595
 20
603.6285493130426
 30
0.0
  0
ENDBLK
  5
4C6
330
4BB
100
AcDbEntity
  8
0
100
AcDbBlockEnd
  0
BLOCK
  5
4D1
330
4C7
100
AcDbEntity
  8
0
100
AcDbBlockBegin
  2
*D9
 70
     1
 10
0.0
 20
0.0
 30
0.0
  3
*D9
  1

  0
LINE
  5
4FF
330
4C7
100
AcDbEntity
  8
OUT53
 62
     0
370
    -2
100
AcDbLine
 10
301.8492520321834
 20
614.6993774672068
 30
0.0
 11
301.8492520321834
 21
582.3785493130426
 31
0.0
  0
LINE
  5
500
330
4C7
100
AcDbEntity
  8
OUT53
 62
     0
370
    -2
100
AcDbLine
 10
570.5567433884921
 20
614.7043271160744
 30
0.0
 11
570.5567433884921
 21
582.3785493130426
 31
0.0
  0
LINE
  5
501
330
4C7
100
AcDbEntity
  8
OUT53
 62
     0
370
    -2
100
AcDbLine
 10
305.8492520321834
 20
583.6285493130426
 30
0.0
 11
566.5567433884921
 21
583.6285493130426
 31
0.0
  0
SOLID
  5
502
330
4C7
100
AcDbEntity
  8
OUT53
 62
     0
100
AcDbTrace
 10
305.8492520321834
 20
584.2952159797092
 30
0.0
 11
305.8492520321834
 21
582.961882646376
 31
0.0
 12
301.8492520321834
 22
583.6285493130426
 32
0.0
 13
301.8492520321834
 23
583.6285493130426
 33
0.0
  0
SOLID
  5
503
330
4C7
100
AcDbEntity
  8
OUT53
 62
     0
100
AcDbTrace
 10
566.5567433884921
 20
584.2952159797092
 30
0.0
 11
566.5567433884921
 21
582.961882646376
 31
0.0
 12
570.5567433884921
 22
583.6285493130426
 32
0.0
 13
570.5567433884921
 23
583.6285493130426
 33
0.0
  0
MTEXT
  5
504
330
4C7
100
AcDbEntity
  8
OUT53
 62
     0
370
    25
100
AcDbMText
 10
436.2029977103377
 20
593.6285493130426
 30
0.0
 40
10.0
 41
0.0
 71
     5
 72
     1
  1
269
 73
     1
 44
1.0
  0
POINT
  5
505
330
4C7
100
AcDbEntity
  8
Defpoints
 62
     0
100
AcDbPoint
 10
301.8492520321834
 20
615.3243774672069
 30
0.0
  0
POINT
  5
506
330
4C7
100
AcDbEntity
  8
Defpoints
 62
     0
100
AcDbPoint
 10
570.5567433884921
 20
615.3293271160744
 30
0.0
  0
POINT
  5
507
330
4C7
100
AcDbEntity
  8
Defpoints
 62
     0
100
AcDbPoint
 10
570.5567433884921
 20
583.6285493130426
 30
0.0
  0
ENDBLK
  5
4D2
330
4C7
100
AcDbEntity
  8
0
100
AcDbBlockEnd
  0
BLOCK
  5
4F4
330
4E5
100
AcDbEntity
  8
0
100
AcDbBlockBegin
  2
*D10
 70
     1
 10
0.0
 20
0.0
 30
0.0
  3
*D10
  1

  0
LINE
  5
508
330
4E5
100
AcDbEntity
  8
DIM
 62
     0
370
    -2
100
AcDbLine
 10
344.5058351866265
 20
707.4565531388024
 30
0.0
 11
356.1612937469559
 21
707.4565531388024
 31
0.0
  0
ARC
  5
509
330
4E5
100
AcDbEntity
  8
DIM
 62
     0
370
    -2
100
AcDbCircle
 10
303.3753465703804
 20
707.4565531388024
 30
0.0
 40
51.53594717657544
100
AcDbArc
 50
346.8568614853194
 51
355.7599229091837
  0
LINE
  5
50A
330
4E5
100
AcDbEntity
  8
DIM
 62
     0
370
    -2
100
AcDbLine
 10
353.5613118473172
 20
695.7380745426336
 30
0.0
 11
343.2748675337444
 21
651.6849892459742
 31
0.0
  0
ARC
  5
50B
330
4E5
100
AcDbEntity
  8
DIM
 62
     0
370
    -2
100
AcDbCircle
 10
303.3753465703804
 20
707.4565531388024
 30
0.0
 40
51.53594717657544
100
AcDbArc
 50
346.8635817525251
 51
351.3117523308544
  0
ARC
  5
50C
330
4E5
100
AcDbEntity
  8
DIM
 62
     0
370
    -2
100
AcDbCircle
 10
303.3753465703804
 20
707.4565531388024
 30
0.0
 40
51.53594717657544
100
AcDbArc
 50
4.448170578329264
 51
8.896341156658529
  0
ARC
  5
50D
330
4E5
100
AcDbEntity
  8
DIM
 62
     0
370
    -2
100
AcDbCircle
 10
303.3753465703804
 20
707.4565531388024
 30
0.0
 40
51.53594717657544
100
AcDbArc
 50
355.7599229091837
 51
0.0
  0
SOLID
  5
50E
330
4E5
100
AcDbEntity
  8
DIM
 62
     0
100
AcDbTrace
 10
353.6574848833462
 20
699.7466874080421
 30
0.0
 11
354.9823415075672
 21
699.5965784375047
 31
0.0
 12
354.7702401070693
 22
703.6462027954359
 32
0.0
 13
354.7702401070693
 23
703.6462027954359
 33
0.0
  0
SOLID
  5
50F
330
4E5
100
AcDbEntity
  8
DIM
 62
     0
100
AcDbTrace
 10
355.4222267539714
 20
711.4794118122816
 30
0.0
 11
354.0898978324638
 21
711.4276679943688
 31
0.0
 12
354.9112937469559
 22
707.4565531388024
 32
0.0
 13
354.9112937469559
 23
707.4565531388024
 33
0.0
  0
MTEXT
  5
510
330
4E5
100
AcDbEntity
  8
DIM
 62
     0
370
    25
100
AcDbMText
 10
337.7526058818659
 20
676.2019342018004
 30
0.0
 40
10.0
 41
0.0
 71
     5
 72
     1
  1
4,24°
 11
0.2273845585105557
 21
0.9738050433998376
 31
0.0
 73
     1
 44
1.0
  0
POINT
  5
511
330
4E5
100
AcDbEntity
  8
Defpoints
 62
     0
100
AcDbPoint
 10
354.8956147608397
 20
706.1854052442125
 30
0.0
  0
POINT
  5
512
330
4E5
100
AcDbEntity
  8
Defpoints
 62
     0
100
AcDbPoint
 10
303.3753465703804
 20
707.4565531388024
 30
0.0
  0
POINT
  5
513
330
4E5
100
AcDbEntity
  8
Defpoints
 62
     0
100
AcDbPoint
 10
303.3753465703804
 20
707.4565531388024
 30
0.0
  0
POINT
  5
514
330
4E5
100
AcDbEntity
  8
Defpoints
 62
     0
100
AcDbPoint
 10
343.8808351866265
 20
707.4565531388024
 30
0.0
  0
POINT
  5
515
330
4E5
100
AcDbEntity
  8
Defpoints
 62
     0
100
AcDbPoint
 10
842.4739132305592
 20
667.4884888579497
 30
0.0
  0
ENDBLK
  5
4F5
330
4E5
100
AcDbEntity
  8
0
100
AcDbBlockEnd
  0
ENDSEC
  0
SECTION
  2
ENTITIES
  0
LINE
  5
36C
330
17
100
AcDbEntity
  8
BOR
370
    25
100
AcDbLine
 10
10.0
 20
10.0
 30
0.0
 11
1178.999999999999
 21
10.0
 31
0.0
  0
LINE
  5
36D
330
17
100
AcDbEntity
  8
BOR
370
    25
100
AcDbLine
 10
1178.999999999999
 20
830.9999999999991
 30
0.0
 11
1178.999999999999
 21
10.0
 31
0.0
  0
LINE
  5
36E
330
17
100
AcDbEntity
  8
BOR
370
    25
100
AcDbLine
 10
1188.999999999999
 20
840.9999999999991
 30
0.0
 11
1188.999999999999
 21
0.0
 31
0.0
  0
LINE
  5
36F
330
17
100
AcDbEntity
  8
BOR
370
    25
100
AcDbLine
 10
0.0
 20
0.0
 30
0.0
 11
1188.999999999999
 21
0.0
 31
0.0
  0
LINE
  5
370
330
17
100
AcDbEntity
  8
BOR715
 62
    15
370
    25
100
AcDbLine
 10
860.187296592027
 20
16.43080931071745
 30
0.0
 11
1023.034399999999
 21
16.43080931071745
 31
0.0
  0
TEXT
  5
371
330
17
100
AcDbEntity
  8
TXT34
 62
     3
370
    25
100
AcDbText
 10
1024.142600265386
 20
28.90635586533881
 30
0.0
 40
3.5
  1
DWG No.
100
AcDbText
  0
TEXT
  5
372
330
17
100
AcDbEntity
  8
TXT34
 62
     3
370
    25
100
AcDbText
 10
1024.317298018987
 20
47.13818093339705
 30
0.0
 40
3.5
  1
TITLE
100
AcDbText
  0
TEXT
  5
373
330
17
100
AcDbEntity
  8
TXT34
 62
     3
370
    25
100
AcDbText
 10
1119.544711184527
 20
19.92559400513528
 30
0.0
 40
3.5
  1
SCALE
100
AcDbText
  0
TEXT
  5
374
330
17
100
AcDbEntity
  8
TXT34
 62
     3
370
    25
100
AcDbText
 10
1024.876037397635
 20
19.91132241443938
 30
0.0
 40
3.5
  1
MAT'L.
100
AcDbText
  0
LINE
  5
375
330
17
100
AcDbEntity
  8
BOR715
 62
    15
370
    25
100
AcDbLine
 10
1147.129242828885
 20
26.33093324039328
 30
0.0
 11
1147.129242828885
 21
36.7416854389985
 31
0.0
  0
LINE
  5
376
330
17
100
AcDbEntity
  8
BOR715
 62
    15
370
    25
100
AcDbLine
 10
860.187296592027
 20
22.45353031495324
 30
0.0
 11
1023.034399999999
 21
22.45353031495324
 31
0.0
  0
TEXT
  5
377
330
17
100
AcDbEntity
  8
TXT34
 62
     3
370
    25
100
AcDbText
 10
733.7792610357287
 20
25.10064581713687
 30
0.0
 40
3.0
  1
INITIALLY USED ON
100
AcDbText
  0
TEXT
  5
378
330
17
100
AcDbEntity
  8
TXT34
 62
     3
370
    25
100
AcDbText
 10
1041.494688866851
 20
59.09370969284828
 30
0.0
 40
3.0
  1
THE BOAT WORKS
 51
15.0
  7
ITALICC
100
AcDbText
  0
TEXT
  5
379
330
17
100
AcDbEntity
  8
TXT34
 62
     3
370
    25
100
AcDbText
 10
1041.013421764001
 20
53.83245814110978
 30
0.0
 40
2.799999999999998
  1
26 THE LEYS, LONG BUCKBY, NORTHAMPTON, NN6 7YD
100
AcDbText
  0
TEXT
  5
37A
330
17
100
AcDbEntity
  8
TXT34
 62
     3
370
    25
100
AcDbText
 10
1138.514376272973
 20
59.26846689433841
 30
0.0
 40
2.799999999999998
  1
TEL 01327 843932
100
AcDbText
  0
TEXT
  5
37B
330
17
100
AcDbEntity
  8
TXT34
 62
     3
370
    25
100
AcDbText
 10
1140.233345966668
 20
47.89413266048541
 30
0.0
 40
3.0
  1
SHT
100
AcDbText
  0
LINE
  5
37C
330
17
100
AcDbEntity
  8
BOR715
 62
    15
370
    25
100
AcDbLine
 10
860.187296592027
 20
28.47625131918812
 30
0.0
 11
861.1872965920252
 21
28.47625131918812
 31
0.0
  0
LINE
  5
37D
330
17
100
AcDbEntity
  8
BOR715
 62
    15
370
    25
100
AcDbLine
 10
860.187296592027
 20
34.49897232342391
 30
0.0
 11
861.1872965920252
 21
34.49897232342391
 31
0.0
  0
LINE
  5
37E
330
17
100
AcDbEntity
  8
BOR715
 62
    15
370
    25
100
AcDbLine
 10
860.187296592027
 20
40.5216933276597
 30
0.0
 11
861.1872965920252
 21
40.5216933276597
 31
0.0
  0
LINE
  5
37F
330
17
100
AcDbEntity
  8
BOR715
 62
    15
370
    25
100
AcDbLine
 10
860.187296592027
 20
46.54441433189458
 30
0.0
 11
861.1872965920252
 21
46.54441433189458
 31
0.0
  0
LINE
  5
380
330
17
100
AcDbEntity
  8
BOR715
 62
    15
370
    25
100
AcDbLine
 10
860.187296592027
 20
52.56713533612947
 30
0.0
 11
861.1872965920252
 21
52.56713533612947
 31
0.0
  0
LINE
  5
381
330
17
100
AcDbEntity
  8
BOR715
 62
    15
370
    25
100
AcDbLine
 10
860.187296592027
 20
58.58985634036526
 30
0.0
 11
861.1872965920252
 21
58.58985634036526
 31
0.0
  0
LINE
  5
382
330
17
100
AcDbEntity
  8
BOR715
 62
    15
370
    25
100
AcDbLine
 10
1022.034399999999
 20
58.58985634036526
 30
0.0
 11
1023.034399999999
 21
58.58985634036526
 31
0.0
  0
LINE
  5
383
330
17
100
AcDbEntity
  8
BOR715
 62
    15
370
    25
100
AcDbLine
 10
1022.034399999999
 20
52.56713533612947
 30
0.0
 11
1023.034399999999
 21
52.56713533612947
 31
0.0
  0
LINE
  5
384
330
17
100
AcDbEntity
  8
BOR715
 62
    15
370
    25
100
AcDbLine
 10
1022.034399999999
 20
46.54441433189458
 30
0.0
 11
1023.034399999999
 21
46.54441433189458
 31
0.0
  0
LINE
  5
385
330
17
100
AcDbEntity
  8
BOR715
 62
    15
370
    25
100
AcDbLine
 10
1022.034399999999
 20
40.5216933276597
 30
0.0
 11
1023.034399999999
 21
40.5216933276597
 31
0.0
  0
LINE
  5
386
330
17
100
AcDbEntity
  8
BOR715
 62
    15
370
    25
100
AcDbLine
 10
1022.034399999999
 20
34.49897232342391
 30
0.0
 11
1023.034399999999
 21
34.49897232342391
 31
0.0
  0
LINE
  5
387
330
17
100
AcDbEntity
  8
BOR715
 62
    15
370
    25
100
AcDbLine
 10
1022.034399999999
 20
28.47625131918812
 30
0.0
 11
1023.034399999999
 21
28.47625131918812
 31
0.0
  0
TEXT
  5
388
330
17
100
AcDbEntity
  8
TXT34
 62
     3
370
    25
100
AcDbText
 10
846.1201006079122
 20
51.62340654675427
 30
0.0
 40
3.499999799999998
  1
0.50
100
AcDbText
  0
TEXT
  5
389
330
17
100
AcDbEntity
  8
TXT34
 62
     3
370
    25
100
AcDbText
 10
846.1201006079122
 20
45.79007354675468
 30
0.0
 40
3.499999799999998
  1
0.25
100
AcDbText
  0
TEXT
  5
38A
330
17
100
AcDbEntity
  8
TXT34
 62
     3
370
    25
100
AcDbText
 10
846.1201006079122
 20
39.95674054675419
 30
0.0
 40
3.499999799999998
  1
0.15
100
AcDbText
  0
TEXT
  5
38B
330
17
100
AcDbEntity
  8
TXT34
 62
     3
370
    25
100
AcDbText
 10
838.6640961204006
 20
39.95674054675419
 30
0.0
 40
3.499999799999998
  1
%%p
100
AcDbText
  0
TEXT
  5
38C
330
17
100
AcDbEntity
  8
TXT34
 62
     3
370
    25
100
AcDbText
 10
838.6640961204006
 20
45.79007354675468
 30
0.0
 40
3.499999799999998
  1
%%p
100
AcDbText
  0
TEXT
  5
38D
330
17
100
AcDbEntity
  8
TXT34
 62
     3
370
    25
100
AcDbText
 10
838.6640961204006
 20
51.62340654675427
 30
0.0
 40
3.499999799999998
  1
%%p
100
AcDbText
  0
TEXT
  5
38E
330
17
100
AcDbEntity
  8
TXT34
 62
     3
370
    25
100
AcDbText
 10
749.0677948937595
 20
57.45673954675385
 30
0.0
 40
3.499999799999998
  1
%%uTOLERANCES.
100
AcDbText
  0
TEXT
  5
38F
330
17
100
AcDbEntity
  8
TXT34
 62
     3
370
    25
100
AcDbText
 10
749.0677948937595
 20
51.62340654675427
 30
0.0
 40
3.499999799999998
  1
Dimensions with one decimal place -
100
AcDbText
  0
TEXT
  5
390
330
17
100
AcDbEntity
  8
TXT34
 62
     3
370
    25
100
AcDbText
 10
749.0677948937595
 20
45.79007354675468
 30
0.0
 40
3.499999799999998
  1
Dimensions with two decimal places -
100
AcDbText
  0
TEXT
  5
391
330
17
100
AcDbEntity
  8
TXT34
 62
     3
370
    25
100
AcDbText
 10
749.0677948937595
 20
39.95674054675419
 30
0.0
 40
3.499999799999998
  1
Dimensions with three decimal places -
100
AcDbText
  0
TEXT
  5
392
330
17
100
AcDbEntity
  8
TXT34
 62
     3
370
    25
100
AcDbText
 10
749.0556105292603
 20
32.93037713763897
 30
0.0
 40
3.5
  1
THIRD ANGLE PROJECTION. DIMS., IN mm
100
AcDbText
  0
LINE
  5
393
330
17
100
AcDbEntity
  8
BOR715
 62
    15
370
    25
100
AcDbLine
 10
860.187296592027
 20
30.45353031495324
 30
0.0
 11
860.1872965920261
 21
10.0
 31
0.0
  0
LINE
  5
394
330
17
100
AcDbEntity
  8
BOR715
 62
    15
370
    25
100
AcDbLine
 10
1023.034399999999
 20
36.7416854389985
 30
0.0
 11
1178.999999999999
 21
36.7416854389985
 31
0.0
  0
LINE
  5
395
330
17
100
AcDbEntity
  8
BOR715
 62
    15
370
    25
100
AcDbLine
 10
1023.034399999999
 20
52.19022481566298
 30
0.0
 11
1178.999999999999
 21
52.19022481566298
 31
0.0
  0
LINE
  5
396
330
17
100
AcDbEntity
  8
BOR715
 62
    15
370
    25
100
AcDbLine
 10
1023.034399999999
 20
10.0
 30
0.0
 11
1023.034399999999
 21
63.97262481566304
 31
0.0
  0
LINE
  5
397
330
17
100
AcDbEntity
  8
BOR715
 62
    15
370
    25
100
AcDbLine
 10
868.8456015596935
 20
10.0
 30
0.0
 11
868.8456015596935
 21
63.97262481566304
 31
0.0
  0
LINE
  5
398
330
17
100
AcDbEntity
  8
BOR715
 62
    15
370
    25
100
AcDbLine
 10
995.7270589733557
 20
10.0
 30
0.0
 11
995.7270589733557
 21
63.97262481566304
 31
0.0
  0
LINE
  5
399
330
17
100
AcDbEntity
  8
BOR715
 62
    15
370
    25
100
AcDbLine
 10
973.4408921758381
 20
10.0
 30
0.0
 11
973.440892175839
 21
63.97262481566304
 31
0.0
  0
LINE
  5
39A
330
17
100
AcDbEntity
  8
BOR715
 62
    15
370
    25
100
AcDbLine
 10
1010.882187206806
 20
63.97262481566304
 30
0.0
 11
1010.882187206805
 21
10.0
 31
0.0
  0
LWPOLYLINE
  5
39B
330
17
100
AcDbEntity
  8
BOR715
 62
    15
370
    25
100
AcDbPolyline
 90
        6
 70
     0
 43
0.0
 10
731.108390726285
 20
10.0
 10
731.1083907262859
 20
30.45353031495324
 10
860.187296592027
 20
30.45353031495324
 10
860.187296592027
 20
63.97262481566304
 10
1023.034399999999
 20
63.97262481566304
 10
1178.999999999999
 20
63.97262481566304
  0
LINE
  5
39C
330
17
100
AcDbEntity
  8
BOR715
 62
    15
370
    25
100
AcDbLine
 10
1023.034399999999
 20
26.33093324039328
 30
0.0
 11
1178.999999999999
 21
26.33093324039328
 31
0.0
  0
LINE
  5
39D
330
17
100
AcDbEntity
  8
BOR715
 62
    15
370
    25
100
AcDbLine
 10
1023.034399999999
 20
18.54830787533319
 30
0.0
 11
1178.999999999999
 21
18.54830787533319
 31
0.0
  0
TEXT
  5
39E
330
17
100
AcDbEntity
  8
TXT34
 62
     3
370
    25
100
AcDbText
 10
795.5088755052997
 20
14.49396631079344
 30
0.0
 40
3.0
  1
THE BOAT WORKS
 51
15.0
  7
ITALICC
100
AcDbText
  0
TEXT
  5
39F
330
17
100
AcDbEntity
  8
TXT34
 62
     3
370
    25
100
AcDbText
 10
737.4934931842276
 20
14.22572055771434
 30
0.0
 40
4.199999999999998
  1
C
 72
     1
 11
738.9934931842276
 21
14.22572055771434
 31
0.0
100
AcDbText
  0
CIRCLE
  5
3A0
330
17
100
AcDbEntity
  8
TXT34
 62
     3
370
    25
100
AcDbCircle
 10
738.9525810930877
 20
16.36455166405812
 30
0.0
 40
2.986160879098066
  0
TEXT
  5
3A1
330
17
100
AcDbEntity
  8
TXT34
 62
     3
370
    25
100
AcDbText
 10
861.3199912500709
 20
11.86733803826882
 30
0.0
 40
2.799999999999998
  1
ISS
100
AcDbText
  0
TEXT
  5
3A2
330
17
100
AcDbEntity
  8
TXT34
 62
     3
370
    25
100
AcDbText
 10
903.9893291734356
 20
11.86733803826882
 30
0.0
 40
2.799999999999998
  1
CHANGE
100
AcDbText
  0
TEXT
  5
3A3
330
17
100
AcDbEntity
  8
TXT34
 62
     3
370
    25
100
AcDbText
 10
980.1256220165747
 20
11.86733803826882
 30
0.0
 40
2.799999999999998
  1
DATE
100
AcDbText
  0
TEXT
  5
3A4
330
17
100
AcDbEntity
  8
TXT34
 62
     3
370
    25
100
AcDbText
 10
999.2705127028891
 20
11.86733803826882
 30
0.0
 40
2.799999999999998
  1
NAME
 72
     2
 11
1010.070512702889
 21
11.86733803826882
 31
0.0
100
AcDbText
  0
TEXT
  5
3A5
330
17
100
AcDbEntity
  8
TXT34
 62
     3
370
    25
100
AcDbText
 10
1010.889392162749
 20
11.86733803826882
 30
0.0
 40
2.799999999999998
  1
APR'L
 72
     2
 11
1022.222725496082
 21
11.86733803826882
 31
0.0
100
AcDbText
  0
TEXT
  5
3A6
330
17
100
AcDbEntity
  8
TXT34
 62
     3
370
    25
100
AcDbText
 10
1024.7564
 20
11.94709343082195
 30
0.0
 40
3.5
  1
FINISH
100
AcDbText
  0
TEXT
  5
3A7
330
17
100
AcDbEntity
  8
TXT34
 62
     3
370
    25
100
AcDbText
 10
1149.365465802357
 20
32.28382133740161
 30
0.0
 40
2.5
  1
C.A.D. file ref
100
AcDbText
  0
TEXT
  5
3A8
330
17
100
AcDbEntity
  8
TXT34
 62
     3
370
    25
100
AcDbText
 10
1152.780152988824
 20
47.97279236754184
 30
0.0
 40
3.0
  1
OF 2  SHTS
100
AcDbText
  0
TEXT
  5
3A9
330
17
100
AcDbEntity
  8
TXT34
 62
     3
370
    25
100
AcDbText
 10
1119.408702631871
 20
10.96892316618505
 30
0.0
 40
3.5
  1
DRAWN
100
AcDbText
  0
LINE
  5
3AA
330
17
100
AcDbEntity
  8
BOR715
 62
    15
370
    25
100
AcDbLine
 10
1118.403758680418
 20
10.0
 30
0.0
 11
1118.403758680419
 21
26.33093324039328
 31
0.0
  0
LINE
  5
3AB
330
17
100
AcDbEntity
  8
BOR
370
    25
100
AcDbLine
 10
1178.999999999999
 20
830.9999999999991
 30
0.0
 11
10.0
 21
830.9999999999991
 31
0.0
  0
LINE
  5
3AC
330
17
100
AcDbEntity
  8
BOR
370
    25
100
AcDbLine
 10
10.0
 20
10.0
 30
0.0
 11
10.0
 21
830.9999999999991
 31
0.0
  0
LINE
  5
3AD
330
17
100
AcDbEntity
  8
BOR
370
    25
100
AcDbLine
 10
1188.999999999999
 20
840.9999999999991
 30
0.0
 11
0.0
 21
840.9999999999991
 31
0.0
  0
LINE
  5
3AE
330
17
100
AcDbEntity
  8
BOR
370
    25
100
AcDbLine
 10
0.0
 20
0.0
 30
0.0
 11
0.0
 21
840.9999999999991
 31
0.0
  0
TEXT
  5
3AF
330
17
100
AcDbEntity
  8
TXT34
 62
     3
370
    25
100
AcDbText
 10
1046.262068981627
 20
42.46043825153629
 30
0.0
 40
3.5
  1
WIZARD
100
AcDbText
  0
TEXT
  5
3B0
330
17
100
AcDbEntity
  8
TXT34
 62
     3
370
    25
100
AcDbText
 10
1150.017794303005
 20
47.89413266048541
 30
0.0
 40
3.0
  1
1
100
AcDbText
  0
TEXT
  5
3B1
330
17
100
AcDbEntity
  8
TXT34
 62
     3
370
    25
100
AcDbText
 10
1139.179706795995
 20
19.92559400513528
 30
0.0
 40
3.5
  1
1:1
100
AcDbText
  0
TEXT
  5
3B2
330
17
100
AcDbEntity
  8
TXT34
 62
     3
370
    25
100
AcDbText
 10
1142.775971446737
 20
10.96892316618505
 30
0.0
 40
3.5
  1
PGSJ
100
AcDbText
  0
TEXT
  5
3B3
330
17
100
AcDbEntity
  8
TXT34
 62
     3
370
    25
100
AcDbText
 10
861.3199912500709
 20
18.29814734898718
 30
0.0
 40
2.799999999999998
  1
1
100
AcDbText
  0
TEXT
  5
3B4
330
17
100
AcDbEntity
  8
TXT34
 62
     3
370
    25
100
AcDbText
 10
903.9893291734356
 20
18.29814734898718
 30
0.0
 40
2.799999999999998
  1
INITIAL ISSUE
100
AcDbText
  0
TEXT
  5
3B5
330
17
100
AcDbEntity
  8
TXT34
 62
     3
370
    25
100
AcDbText
 10
974.3648680183673
 20
18.29814734898718
 30
0.0
 40
2.2
  1
23/04/2013
100
AcDbText
  0
TEXT
  5
3B6
330
17
100
AcDbEntity
  8
TXT34
 62
     3
370
    25
100
AcDbText
 10
1000.470512702889
 20
18.29814734898718
 30
0.0
 40
2.799999999999998
  1
PGSJ
 72
     2
 11
1010.070512702889
 21
18.29814734898718
 31
0.0
100
AcDbText
  0
TEXT
  5
3B7
330
17
100
AcDbEntity
  8
TXT34
 62
     3
370
    25
100
AcDbText
 10
758.4186594237478
 20
14.22572055771434
 30
0.0
 40
3.0
  1
23/04/2013
 72
     1
 11
772.2758022808907
 21
14.22572055771434
 31
0.0
100
AcDbText
  0
LINE
  5
3B8
330
17
100
AcDbEntity
  8
BOR715
 62
    15
370
    25
100
AcDbLine
 10
860.187296592027
 20
22.45353031495324
 30
0.0
 11
1023.034399999999
 21
22.45353031495324
 31
0.0
  0
TEXT
  5
3B9
330
17
100
AcDbEntity
  8
TXT34
 62
     3
370
    25
100
AcDbText
 10
861.3199912500709
 20
24.32086835322207
 30
0.0
 40
2.799999999999998
  1
2
100
AcDbText
  0
LINE
  5
3BA
330
17
100
AcDbEntity
  8
BOR715
 62
    15
370
    25
100
AcDbLine
 10
860.187296592027
 20
22.45353031495324
 30
0.0
 11
1023.034399999999
 21
22.45353031495324
 31
0.0
  0
LINE
  5
3BB
330
17
100
AcDbEntity
  8
BOR715
 62
    15
370
    25
100
AcDbLine
 10
860.187296592027
 20
28.47625131918812
 30
0.0
 11
1023.034399999999
 21
28.47625131918812
 31
0.0
  0
LINE
  5
3BC
330
17
100
AcDbEntity
  8
BOR715
 62
    15
370
    25
100
AcDbLine
 10
860.187296592027
 20
28.47625131918812
 30
0.0
 11
1023.034399999999
 21
28.47625131918812
 31
0.0
  0
LINE
  5
3BD
330
17
100
AcDbEntity
  8
BOR715
 62
    15
370
    25
100
AcDbLine
 10
860.187296592027
 20
28.47625131918812
 30
0.0
 11
1023.034399999999
 21
28.47625131918812
 31
0.0
  0
LINE
  5
3BE
330
17
100
AcDbEntity
  8
BOR715
 62
    15
370
    25
100
AcDbLine
 10
860.187296592027
 20
28.47625131918812
 30
0.0
 11
1023.034399999999
 21
28.47625131918812
 31
0.0
  0
LINE
  5
3BF
330
17
100
AcDbEntity
  8
BOR715
 62
    15
370
    25
100
AcDbLine
 10
860.187296592027
 20
28.47625131918812
 30
0.0
 11
1023.034399999999
 21
28.47625131918812
 31
0.0
  0
LINE
  5
3C0
330
17
100
AcDbEntity
  8
BOR715
 62
    15
370
    25
100
AcDbLine
 10
860.187296592027
 20
34.49897232342391
 30
0.0
 11
1023.034399999999
 21
34.49897232342391
 31
0.0
  0
LINE
  5
3C1
330
17
100
AcDbEntity
  8
BOR715
 62
    15
370
    25
100
AcDbLine
 10
860.187296592027
 20
40.5216933276597
 30
0.0
 11
1023.034399999999
 21
40.5216933276597
 31
0.0
  0
LINE
  5
3C2
330
17
100
AcDbEntity
  8
OUT57
370
    25
100
AcDbLine
 10
303.3753465703803
 20
707.4565531388023
 30
0.0
 11
301.8492520321843
 21
652.4777296204669
 31
0.0
  0
LINE
  5
3C3
330
17
100
AcDbEntity
  8
OUT57
370
    25
100
AcDbLine
 10
304.9282326493112
 20
705.7370329801801
 30
0.0
 11
303.4843041467866
 21
653.7183091550916
 31
0.0
  0
ARC
  5
3C4
330
17
100
AcDbEntity
  8
OUT57
370
    25
100
AcDbCircle
 10
571.9319443328281
 20
1730.504396194038
 30
0.0
 40
1111.344300621589
100
AcDbArc
 50
255.9349459931357
 51
284.0673345493005
  0
ARC
  5
3C5
330
17
100
AcDbEntity
  8
OUT57
370
    25
100
AcDbCircle
 10
571.9319443328281
 20
1730.504396194038
 30
0.0
 40
1112.344300621589
100
AcDbArc
 50
281.4134547130872
 51
284.0673345493005
  0
ARC
  5
3C6
330
17
100
AcDbEntity
  8
OUT57
370
    25
100
AcDbCircle
 10
571.9319443328281
 20
1730.504396194038
 30
0.0
 40
1109.744300621589
100
AcDbArc
 50
255.9166694276008
 51
284.0904894334546
  0
ARC
  5
3C7
330
17
100
AcDbEntity
  8
OUT57
370
    25
100
AcDbCircle
 10
694.5930658275305
 20
694.5699123724705
 30
0.0
 40
102.7871889668995
100
AcDbArc
 50
185.6607758585867
 51
223.9217818924077
  0
LINE
  5
3C8
330
17
100
AcDbEntity
  8
OUT57
370
    25
100
AcDbLine
 10
792.0510116815553
 20
640.1570023259835
 30
0.0
 11
797.3104300938461
 21
584.6216237650517
 31
0.0
  0
ARC
  5
3C9
330
17
100
AcDbEntity
  8
OUT57
370
    25
100
AcDbCircle
 10
850.4725610989803
 20
589.6562863151286
 30
0.0
 40
53.40000000000033
100
AcDbArc
 50
185.409999999988
 51
254.7309827911258
  0
ARC
  5
3CA
330
17
100
AcDbEntity
  8
OUT57
370
    25
100
AcDbCircle
 10
836.9362978369595
 20
540.0707079994313
 30
0.0
 40
1.999999999999999
100
AcDbArc
 50
254.7309827911258
 51
358.4099999999937
  0
LINE
  5
3CB
330
17
100
AcDbEntity
  8
CTR34
370
    25
100
AcDbLine
 10
308.5098406373836
 20
652.4778621760824
 30
0.0
 11
842.0575450862747
 21
652.4884805686338
 31
0.0
  0
LINE
  5
3CC
330
17
100
AcDbEntity
  8
CTR34
370
    25
100
AcDbLine
 10
556.8480906523595
 20
619.7144099770337
 30
0.0
 11
556.8480906523586
 21
724.0138669178136
 31
0.0
  0
LINE
  5
3CD
330
17
100
AcDbEntity
  8
OUT57
370
    25
100
AcDbLine
 10
552.8480906523595
 20
621.4489502088804
 30
0.0
 11
552.8480906523595
 21
695.4441413534557
 31
0.0
  0
LINE
  5
3CE
330
17
100
AcDbEntity
  8
OUT57
370
    25
100
AcDbLine
 10
560.8480906523595
 20
621.195907212372
 30
0.0
 11
560.8480906523595
 21
695.4441413534557
 31
0.0
  0
LINE
  5
3CF
330
17
100
AcDbEntity
  8
OUT57
370
    25
100
AcDbLine
 10
570.5567433884921
 20
689.1312449470158
 30
0.0
 11
570.556743388493
 21
488.115662762593
 31
0.0
  0
LINE
  5
3D0
330
17
100
AcDbEntity
  8
OUT57
370
    25
100
AcDbLine
 10
620.5567433884921
 20
623.2689363944407
 30
0.0
 11
620.5567433884921
 21
483.2067136493565
 31
0.0
  0
LINE
  5
3D1
330
17
100
AcDbEntity
  8
OUT57
370
    25
100
AcDbLine
 10
303.3753465703803
 20
707.4565531388023
 30
0.0
 11
842.4739132305589
 21
667.4884888579494
 31
0.0
  0
LINE
  5
3D2
330
17
100
AcDbEntity
  8
OUT57
370
    25
100
AcDbLine
 10
303.2570493257699
 20
705.8609323311173
 30
0.0
 11
842.3556159859485
 21
665.8928680502643
 31
0.0
  0
LINE
  5
3D3
330
17
100
AcDbEntity
  8
OUT57
370
    25
100
AcDbLine
 10
297.0900593911274
 20
586.385389448382
 30
0.0
 11
297.0900593911274
 21
586.385389448382
 31
0.0
  0
LINE
  5
3D4
330
17
100
AcDbEntity
  8
OUT57
370
    25
100
AcDbLine
 10
682.4196375261712
 20
471.4163582073413
 30
0.0
 11
682.4091703349218
 21
471.2166323003905
 31
0.0
  0
LINE
  5
3D5
330
17
100
AcDbEntity
  8
CL
370
    25
100
AcDbLine
 10
528.6202219827195
 20
479.2763695618039
 30
0.0
 11
682.4091703349218
 21
471.2166323003905
 31
0.0
  0
LINE
  5
3D6
330
17
100
AcDbEntity
  8
OUT57
370
    25
100
AcDbLine
 10
532.9379802196759
 20
480.8872795504377
 30
0.0
 11
536.5379531606936
 21
482.2303913823195
 31
0.0
  0
LINE
  5
3D7
330
17
100
AcDbEntity
  8
OUT57
370
    25
100
AcDbLine
 10
536.5379531606936
 20
482.2303913823195
 30
0.0
 11
543.492490368852
 21
484.457459427909
 31
0.0
  0
LINE
  5
3D8
330
17
100
AcDbEntity
  8
OUT57
370
    25
100
AcDbLine
 10
543.492490368852
 20
484.457459427909
 30
0.0
 11
549.5965974065352
 21
486.0566907462737
 31
0.0
  0
LINE
  5
3D9
330
17
100
AcDbEntity
  8
OUT57
370
    25
100
AcDbLine
 10
549.5965974065352
 20
486.0566907462737
 30
0.0
 11
554.9630380730818
 21
487.1272023851147
 31
0.0
  0
LINE
  5
3DA
330
17
100
AcDbEntity
  8
OUT57
370
    25
100
AcDbLine
 10
554.9630380730818
 20
487.1272023851147
 30
0.0
 11
559.7045761678304
 21
487.7681113921335
 31
0.0
  0
LINE
  5
3DB
330
17
100
AcDbEntity
  8
OUT57
370
    25
100
AcDbLine
 10
559.7045761678304
 20
487.7681113921335
 30
0.0
 11
563.9339754901215
 21
488.0785348150304
 31
0.0
  0
LINE
  5
3DC
330
17
100
AcDbEntity
  8
OUT57
370
    25
100
AcDbLine
 10
563.9339754901215
 20
488.0785348150304
 30
0.0
 11
567.7639998392947
 21
488.1575897015072
 31
0.0
  0
LINE
  5
3DD
330
17
100
AcDbEntity
  8
OUT57
370
    25
100
AcDbLine
 10
567.7639998392947
 20
488.1575897015072
 30
0.0
 11
571.3074130146874
 21
488.1043930992645
 31
0.0
  0
LINE
  5
3DE
330
17
100
AcDbEntity
  8
OUT57
370
    25
100
AcDbLine
 10
571.3074130146874
 20
488.1043930992645
 30
0.0
 11
574.6617879292958
 21
488.0018752667178
 31
0.0
  0
LINE
  5
3DF
330
17
100
AcDbEntity
  8
OUT57
370
    25
100
AcDbLine
 10
574.6617879292958
 20
488.0018752667178
 30
0.0
 11
577.8639339507394
 21
487.8682193051393
 31
0.0
  0
LINE
  5
3E0
330
17
100
AcDbEntity
  8
OUT57
370
    25
100
AcDbLine
 10
577.8639339507394
 20
487.8682193051393
 30
0.0
 11
580.935469560291
 21
487.7054215265148
 31
0.0
  0
LINE
  5
3E1
330
17
100
AcDbEntity
  8
OUT57
370
    25
100
AcDbLine
 10
580.935469560291
 20
487.7054215265148
 30
0.0
 11
583.8980132392229
 21
487.5154782428308
 31
0.0
  0
LINE
  5
3E2
330
17
100
AcDbEntity
  8
OUT57
370
    25
100
AcDbLine
 10
583.8980132392229
 20
487.5154782428308
 30
0.0
 11
586.7731834688124
 21
487.3003857660733
 31
0.0
  0
LINE
  5
3E3
330
17
100
AcDbEntity
  8
OUT57
370
    25
100
AcDbLine
 10
586.7731834688124
 20
487.3003857660733
 30
0.0
 11
589.5825987303319
 21
487.0621404082287
 31
0.0
  0
LINE
  5
3E4
330
17
100
AcDbEntity
  8
OUT57
370
    25
100
AcDbLine
 10
589.5825987303319
 20
487.0621404082287
 30
0.0
 11
592.3478775050548
 21
486.8027384812831
 31
0.0
  0
LINE
  5
3E5
330
17
100
AcDbEntity
  8
OUT57
370
    25
100
AcDbLine
 10
592.3478775050548
 20
486.8027384812831
 30
0.0
 11
595.0906382742564
 21
486.5241762972227
 31
0.0
  0
LINE
  5
3E6
330
17
100
AcDbEntity
  8
OUT57
370
    25
100
AcDbLine
 10
595.0906382742564
 20
486.5241762972227
 30
0.0
 11
597.8289032535753
 21
486.2282474792566
 31
0.0
  0
LINE
  5
3E7
330
17
100
AcDbEntity
  8
OUT57
370
    25
100
AcDbLine
 10
597.8289032535753
 20
486.2282474792566
 30
0.0
 11
600.5663095961113
 21
485.9159348954863
 31
0.0
  0
LINE
  5
3E8
330
17
100
AcDbEntity
  8
OUT57
370
    25
100
AcDbLine
 10
600.5663095961113
 20
485.9159348954863
 30
0.0
 11
603.3028981893326
 21
485.5880187252351
 31
0.0
  0
LINE
  5
3E9
330
17
100
AcDbEntity
  8
OUT57
370
    25
100
AcDbLine
 10
603.3028981893326
 20
485.5880187252351
 30
0.0
 11
606.0387099207023
 21
485.2452791478274
 31
0.0
  0
LINE
  5
3EA
330
17
100
AcDbEntity
  8
OUT57
370
    25
100
AcDbLine
 10
606.0387099207023
 20
485.2452791478274
 30
0.0
 11
608.773785677688
 21
484.8884963425873
 31
0.0
  0
LINE
  5
3EB
330
17
100
AcDbEntity
  8
OUT57
370
    25
100
AcDbLine
 10
608.773785677688
 20
484.8884963425873
 30
0.0
 11
611.5081663477544
 21
484.5184504888386
 31
0.0
  0
LINE
  5
3EC
330
17
100
AcDbEntity
  8
OUT57
370
    25
100
AcDbLine
 10
611.5081663477544
 20
484.5184504888386
 30
0.0
 11
614.2418928183683
 21
484.1359217659057
 31
0.0
  0
LINE
  5
3ED
330
17
100
AcDbEntity
  8
OUT57
370
    25
100
AcDbLine
 10
614.2418928183683
 20
484.1359217659057
 30
0.0
 11
616.9750059769926
 21
483.7416903531122
 31
0.0
  0
LINE
  5
3EE
330
17
100
AcDbEntity
  8
OUT57
370
    25
100
AcDbLine
 10
616.9750059769926
 20
483.7416903531122
 30
0.0
 11
619.7110918674002
 21
483.3357638944043
 31
0.0
  0
LINE
  5
3EF
330
17
100
AcDbEntity
  8
OUT57
370
    25
100
AcDbLine
 10
619.7110918674002
 20
483.3357638944043
 30
0.0
 11
622.4679171585671
 21
482.9150598922162
 31
0.0
  0
LINE
  5
3F0
330
17
100
AcDbEntity
  8
OUT57
370
    25
100
AcDbLine
 10
622.4679171585671
 20
482.9150598922162
 30
0.0
 11
625.2667936757729
 21
482.4757233136038
 31
0.0
  0
LINE
  5
3F1
330
17
100
AcDbEntity
  8
OUT57
370
    25
100
AcDbLine
 10
625.2667936757729
 20
482.4757233136038
 30
0.0
 11
628.1290332442972
 21
482.0138991256226
 31
0.0
  0
LINE
  5
3F2
330
17
100
AcDbEntity
  8
OUT57
370
    25
100
AcDbLine
 10
628.1290332442972
 20
482.0138991256226
 30
0.0
 11
631.075947689424
 21
481.5257322953291
 31
0.0
  0
LINE
  5
3F3
330
17
100
AcDbEntity
  8
OUT57
370
    25
100
AcDbLine
 10
631.075947689424
 20
481.5257322953291
 30
0.0
 11
634.1288488364293
 21
481.0073677897794
 31
0.0
  0
LINE
  5
3F4
330
17
100
AcDbEntity
  8
OUT57
370
    25
100
AcDbLine
 10
634.1288488364293
 20
481.0073677897794
 30
0.0
 11
637.3090485105953
 21
480.4549505760294
 31
0.0
  0
LINE
  5
3F5
330
17
100
AcDbEntity
  8
OUT57
370
    25
100
AcDbLine
 10
637.3090485105953
 20
480.4549505760294
 30
0.0
 11
640.6378585372054
 21
479.864625621135
 31
0.0
  0
LINE
  5
3F6
330
17
100
AcDbEntity
  8
OUT57
370
    25
100
AcDbLine
 10
640.6378585372054
 20
479.864625621135
 30
0.0
 11
644.1507389975018
 21
479.2288301086752
 31
0.0
  0
LINE
  5
3F7
330
17
100
AcDbEntity
  8
OUT57
370
    25
100
AcDbLine
 10
644.1507389975018
 20
479.2288301086752
 30
0.0
 11
647.9397429965943
 21
478.5251700883218
 31
0.0
  0
LINE
  5
3F8
330
17
100
AcDbEntity
  8
OUT57
370
    25
100
AcDbLine
 10
647.9397429965943
 20
478.5251700883218
 30
0.0
 11
652.111071895561
 21
477.7275438262695
 31
0.0
  0
LINE
  5
3F9
330
17
100
AcDbEntity
  8
OUT57
370
    25
100
AcDbLine
 10
652.111071895561
 20
477.7275438262695
 30
0.0
 11
656.7709270554792
 21
476.8098495887131
 31
0.0
  0
LINE
  5
3FA
330
17
100
AcDbEntity
  8
OUT57
370
    25
100
AcDbLine
 10
656.7709270554792
 20
476.8098495887131
 30
0.0
 11
662.0255098374222
 21
475.7459856418474
 31
0.0
  0
LINE
  5
3FB
330
17
100
AcDbEntity
  8
OUT57
370
    25
100
AcDbLine
 10
662.0255098374222
 20
475.7459856418474
 30
0.0
 11
667.9810216024684
 21
474.5098502518669
 31
0.0
  0
LINE
  5
3FC
330
17
100
AcDbEntity
  8
OUT57
370
    25
100
AcDbLine
 10
667.9810216024684
 20
474.5098502518669
 30
0.0
 11
674.7436637116939
 21
473.0753416849665
 31
0.0
  0
LINE
  5
3FD
330
17
100
AcDbEntity
  8
OUT57
370
    25
100
AcDbLine
 10
674.7436637116939
 20
473.0753416849665
 30
0.0
 11
682.4196375261721
 21
471.4163582073415
 31
0.0
  0
LINE
  5
3FE
330
17
100
AcDbEntity
  8
OUT57
370
    25
100
AcDbLine
 10
532.745941145326
 20
477.2229557234108
 30
0.0
 11
536.185799639496
 21
475.5109019093056
 31
0.0
  0
ARC
  5
3FF
330
17
100
AcDbEntity
  8
OUT57
370
    25
100
AcDbCircle
 10
533.6370874103927
 20
479.0134468108671
 30
0.0
 40
1.999999999999999
100
AcDbArc
 50
110.4600134500123
 51
243.5399865500012
  0
LINE
  5
400
330
17
100
AcDbEntity
  8
OUT57
370
    25
100
AcDbLine
 10
536.185799639496
 20
475.5109019093056
 30
0.0
 11
542.8694471647654
 21
472.5690868883853
 31
0.0
  0
LINE
  5
401
330
17
100
AcDbEntity
  8
OUT57
370
    25
100
AcDbLine
 10
542.8694471647654
 20
472.5690868883853
 30
0.0
 11
548.7729500732952
 21
470.3405633982424
 31
0.0
  0
LINE
  5
402
330
17
100
AcDbEntity
  8
OUT57
370
    25
100
AcDbLine
 10
548.7729500732952
 20
470.3405633982424
 30
0.0
 11
553.9980938798521
 21
468.7149703380771
 31
0.0
  0
LINE
  5
403
330
17
100
AcDbEntity
  8
OUT57
370
    25
100
AcDbLine
 10
553.9980938798521
 20
468.7149703380771
 30
0.0
 11
558.6466640992044
 21
467.5819466070893
 31
0.0
  0
LINE
  5
404
330
17
100
AcDbEntity
  8
OUT57
370
    25
100
AcDbLine
 10
558.6466640992044
 20
467.5819466070893
 30
0.0
 11
562.8204462461212
 21
466.8311311044785
 31
0.0
  0
LINE
  5
405
330
17
100
AcDbEntity
  8
OUT57
370
    25
100
AcDbLine
 10
562.8204462461212
 20
466.8311311044785
 30
0.0
 11
566.6212258353702
 21
466.3521627294449
 31
0.0
  0
LINE
  5
406
330
17
100
AcDbEntity
  8
OUT57
370
    25
100
AcDbLine
 10
566.6212258353702
 20
466.3521627294449
 30
0.0
 11
570.150788381718
 21
466.0346803811883
 31
0.0
  0
LINE
  5
407
330
17
100
AcDbEntity
  8
OUT57
370
    25
100
AcDbLine
 10
570.150788381718
 20
466.0346803811883
 30
0.0
 11
573.4975037110648
 21
465.7860089552739
 31
0.0
  0
LINE
  5
408
330
17
100
AcDbEntity
  8
OUT57
370
    25
100
AcDbLine
 10
573.4975037110648
 20
465.7860089552739
 30
0.0
 11
576.6960788938254
 21
465.5842173327305
 31
0.0
  0
LINE
  5
409
330
17
100
AcDbEntity
  8
OUT57
370
    25
100
AcDbLine
 10
576.6960788938254
 20
465.5842173327305
 30
0.0
 11
579.7678053115519
 21
465.4250603909515
 31
0.0
  0
LINE
  5
40A
330
17
100
AcDbEntity
  8
OUT57
370
    25
100
AcDbLine
 10
579.7678053115519
 20
465.4250603909515
 30
0.0
 11
582.7339743457855
 21
465.3042930073313
 31
0.0
  0
LINE
  5
40B
330
17
100
AcDbEntity
  8
OUT57
370
    25
100
AcDbLine
 10
582.7339743457855
 20
465.3042930073313
 30
0.0
 11
585.6158773780793
 21
465.2176700592636
 31
0.0
  0
LINE
  5
40C
330
17
100
AcDbEntity
  8
OUT57
370
    25
100
AcDbLine
 10
585.6158773780793
 20
465.2176700592636
 30
0.0
 11
588.4348057899792
 21
465.1609464241426
 31
0.0
  0
LINE
  5
40D
330
17
100
AcDbEntity
  8
OUT57
370
    25
100
AcDbLine
 10
588.4348057899792
 20
465.1609464241426
 30
0.0
 11
591.2120509630299
 21
465.1298769793623
 31
0.0
  0
LINE
  5
40E
330
17
100
AcDbEntity
  8
OUT57
370
    25
100
AcDbLine
 10
591.2120509630299
 20
465.1298769793623
 30
0.0
 11
593.9689042787835
 21
465.1202166023162
 31
0.0
  0
LINE
  5
40F
330
17
100
AcDbEntity
  8
OUT57
370
    25
100
AcDbLine
 10
593.9689042787835
 20
465.1202166023162
 30
0.0
 11
596.7231017406143
 21
465.1282976609461
 31
0.0
  0
LINE
  5
410
330
17
100
AcDbEntity
  8
OUT57
370
    25
100
AcDbLine
 10
596.7231017406143
 20
465.1282976609461
 30
0.0
 11
599.478157839228
 21
465.1527624853806
 31
0.0
  0
LINE
  5
411
330
17
100
AcDbEntity
  8
OUT57
370
    25
100
AcDbLine
 10
599.478157839228
 20
465.1527624853806
 30
0.0
 11
602.2340316871573
 21
465.1928308962956
 31
0.0
  0
LINE
  5
412
330
17
100
AcDbEntity
  8
OUT57
370
    25
100
AcDbLine
 10
602.2340316871573
 20
465.1928308962956
 30
0.0
 11
604.9906823969372
 21
465.2477227143672
 31
0.0
  0
LINE
  5
413
330
17
100
AcDbEntity
  8
OUT57
370
    25
100
AcDbLine
 10
604.9906823969372
 20
465.2477227143672
 30
0.0
 11
607.748069081103
 21
465.3166577602708
 31
0.0
  0
LINE
  5
414
330
17
100
AcDbEntity
  8
OUT57
370
    25
100
AcDbLine
 10
607.748069081103
 20
465.3166577602708
 30
0.0
 11
610.5061508521871
 21
465.3988558546834
 31
0.0
  0
LINE
  5
415
330
17
100
AcDbEntity
  8
OUT57
370
    25
100
AcDbLine
 10
610.5061508521871
 20
465.3988558546834
 30
0.0
 11
613.2648868227229
 21
465.49353681828
 31
0.0
  0
LINE
  5
416
330
17
100
AcDbEntity
  8
OUT57
370
    25
100
AcDbLine
 10
613.2648868227229
 20
465.49353681828
 30
0.0
 11
616.0242361052455
 21
465.5999204717375
 31
0.0
  0
LINE
  5
417
330
17
100
AcDbEntity
  8
OUT57
370
    25
100
AcDbLine
 10
616.0242361052455
 20
465.5999204717375
 30
0.0
 11
618.7877642997941
 21
465.7176243693391
 31
0.0
  0
LINE
  5
418
330
17
100
AcDbEntity
  8
OUT57
370
    25
100
AcDbLine
 10
618.7877642997941
 20
465.7176243693391
 30
0.0
 11
621.5734629564017
 21
465.8478569998012
 31
0.0
  0
LINE
  5
419
330
17
100
AcDbEntity
  8
OUT57
370
    25
100
AcDbLine
 10
621.5734629564017
 20
465.8478569998012
 30
0.0
 11
624.4029301126161
 21
465.9922245854484
 31
0.0
  0
LINE
  5
41A
330
17
100
AcDbEntity
  8
OUT57
370
    25
100
AcDbLine
 10
624.4029301126161
 20
465.9922245854484
 30
0.0
 11
627.2977638059733
 21
466.1523333486043
 31
0.0
  0
LINE
  5
41B
330
17
100
AcDbEntity
  8
OUT57
370
    25
100
AcDbLine
 10
627.2977638059733
 20
466.1523333486043
 30
0.0
 11
630.2795620740157
 21
466.3297895115934
 31
0.0
  0
LINE
  5
41C
330
17
100
AcDbEntity
  8
OUT57
370
    25
100
AcDbLine
 10
630.2795620740157
 20
466.3297895115934
 30
0.0
 11
633.3699229542867
 21
466.5261992967396
 31
0.0
  0
LINE
  5
41D
330
17
100
AcDbEntity
  8
OUT57
370
    25
100
AcDbLine
 10
633.3699229542867
 20
466.5261992967396
 30
0.0
 11
636.590444484324
 21
466.7431689263676
 31
0.0
  0
LINE
  5
41E
330
17
100
AcDbEntity
  8
OUT57
370
    25
100
AcDbLine
 10
636.590444484324
 20
466.7431689263676
 30
0.0
 11
639.9627247016719
 21
466.9823046228011
 31
0.0
  0
LINE
  5
41F
330
17
100
AcDbEntity
  8
OUT57
370
    25
100
AcDbLine
 10
639.9627247016719
 20
466.9823046228011
 30
0.0
 11
643.5228199631169
 21
467.2474211847613
 31
0.0
  0
LINE
  5
420
330
17
100
AcDbEntity
  8
OUT57
370
    25
100
AcDbLine
 10
643.5228199631169
 20
467.2474211847613
 30
0.0
 11
647.3646199024438
 21
467.5511677165579
 31
0.0
  0
LINE
  5
421
330
17
100
AcDbEntity
  8
OUT57
370
    25
100
AcDbLine
 10
647.3646199024438
 20
467.5511677165579
 30
0.0
 11
651.5964724726832
 21
467.9084018988967
 31
0.0
  0
LINE
  5
422
330
17
100
AcDbEntity
  8
OUT57
370
    25
100
AcDbLine
 10
651.5964724726832
 20
467.9084018988967
 30
0.0
 11
656.3267256268686
 21
468.3339814124837
 31
0.0
  0
LINE
  5
423
330
17
100
AcDbEntity
  8
OUT57
370
    25
100
AcDbLine
 10
656.3267256268686
 20
468.3339814124837
 30
0.0
 11
661.663727318028
 21
468.8427639380251
 31
0.0
  0
LINE
  5
424
330
17
100
AcDbEntity
  8
OUT57
370
    25
100
AcDbLine
 10
661.663727318028
 20
468.8427639380251
 30
0.0
 11
667.715825499195
 21
469.4496071562277
 31
0.0
  0
LINE
  5
425
330
17
100
AcDbEntity
  8
OUT57
370
    25
100
AcDbLine
 10
667.715825499195
 20
469.4496071562277
 30
0.0
 11
674.5913681234001
 21
470.1693687477971
 31
0.0
  0
LINE
  5
426
330
17
100
AcDbEntity
  8
OUT57
370
    25
100
AcDbLine
 10
674.5913681234001
 20
470.1693687477971
 30
0.0
 11
682.3987031436732
 21
471.0169063934395
 31
0.0
  0
LINE
  5
427
330
17
100
AcDbEntity
  8
OUT57
370
    25
100
AcDbLine
 10
682.3987031436732
 20
471.0169063934395
 30
0.0
 11
682.4091703349218
 21
471.2166323003905
 31
0.0
  0
HATCH
  5
428
330
17
100
AcDbEntity
  8
OUT57
370
    25
100
AcDbHatch
 10
0.0
 20
0.0
 30
0.0
210
0.0
220
0.0
230
1.0
  2
ANSI31
 70
     0
 71
     0
 91
        1
 92
        7
 72
     1
 73
     1
 93
        3
 10
592.0331974396326
 20
475.9530363403769
 42
0.4142135623731097
 10
593.925784596658
 20
473.8511053583818
 42
0.0
 10
594.0304565091423
 20
475.848364427891
 42
0.0
 97
        0
 75
     0
 76
     1
 52
-3.000000000000045
 41
0.5
 77
     0
 78
     1
 53
41.99999999999994
 43
-2772.015182895267
 44
120.2349165060607
 45
-1.062244837594686
 46
1.179742410445363
 79
     0
 47
0.0282989630202699
 98
        2
 10
594.5959595151721
 20
476.5117223225245
 10
593.3400758294906
 20
474.735584185069
1001
ACAD
1010
0.0
1020
0.0
1030
0.0
  0
LINE
  5
429
330
17
100
AcDbEntity
  8
OUT57
370
    25
100
AcDbLine
 10
593.925784596658
 20
473.8511053583819
 30
0.0
 11
594.1351284216275
 21
477.8456234974003
 31
0.0
  0
CIRCLE
  5
42A
330
17
100
AcDbEntity
  8
OUT57
370
    25
100
AcDbCircle
 10
594.0304565091423
 20
475.848364427891
 30
0.0
 40
1.999999999999999
  0
LINE
  5
42B
330
17
100
AcDbEntity
  8
OUT57
370
    25
100
AcDbLine
 10
592.0331974396326
 20
475.9530363403769
 30
0.0
 11
596.0277155786512
 21
475.7436925154052
 31
0.0
  0
LINE
  5
42C
330
17
100
AcDbEntity
  8
OUT57
370
    25
100
AcDbLine
 10
548.1917122042728
 20
611.4240860590516
 30
0.0
 11
548.1917122042728
 21
611.4240860590516
 31
0.0
  0
LINE
  5
42D
330
17
100
AcDbEntity
  8
OUT57
370
    25
100
AcDbLine
 10
842.4739132305589
 20
667.4884888579494
 30
0.0
 11
842.0575450862756
 21
652.488480568634
 31
0.0
  0
LINE
  5
42E
330
17
100
AcDbEntity
  8
OUT57
370
    25
100
AcDbLine
 10
839.2348120502887
 20
666.1242403818235
 30
0.0
 11
838.8801040625708
 21
653.3455904559964
 31
0.0
  0
LINE
  5
42F
330
17
100
AcDbEntity
  8
OUT57
370
    25
100
AcDbLine
 10
842.0287296372421
 20
651.4503800792035
 30
0.0
 11
838.9355277830805
 21
540.0152136525877
 31
0.0
  0
LINE
  5
430
330
17
100
AcDbEntity
  8
CTR34
370
    25
100
AcDbLine
 10
301.8492520321834
 20
652.4777296204669
 30
0.0
 11
301.8492520321834
 21
747.2222640241707
 31
0.0
  0
LINE
  5
431
330
17
100
AcDbEntity
  8
CTR34
370
    25
100
AcDbLine
 10
355.8492520321824
 20
640.3693473986175
 30
0.0
 11
355.8492520321824
 21
703.5662062592737
 31
0.0
  0
LINE
  5
432
330
17
100
AcDbEntity
  8
CTR34
370
    25
100
AcDbLine
 10
409.8492520321829
 20
631.0430028833573
 30
0.0
 11
409.8492520321829
 21
699.562716722032
 31
0.0
  0
LINE
  5
433
330
17
100
AcDbEntity
  8
CTR34
370
    25
100
AcDbLine
 10
463.8492520321829
 20
624.4283200812178
 30
0.0
 11
463.8492520321819
 21
695.5592271847904
 31
0.0
  0
LINE
  5
434
330
17
100
AcDbEntity
  8
CTR34
370
    25
100
AcDbLine
 10
517.8492520321829
 20
620.4768213484385
 30
0.0
 11
517.8492520321829
 21
691.5557376475485
 31
0.0
  0
LINE
  5
435
330
17
100
AcDbEntity
  8
CTR34
370
    25
100
AcDbLine
 10
571.8492520321829
 20
619.1600986489106
 30
0.0
 11
571.8492520321838
 21
687.5522481103066
 31
0.0
  0
LINE
  5
436
330
17
100
AcDbEntity
  8
CTR34
370
    25
100
AcDbLine
 10
625.8492520321829
 20
620.4687758401044
 30
0.0
 11
625.8492520321819
 21
683.548758573065
 31
0.0
  0
LINE
  5
437
330
17
100
AcDbEntity
  8
CTR34
370
    25
100
AcDbLine
 10
679.8492520321829
 20
624.4121716381414
 30
0.0
 11
679.8492520321819
 21
679.5452690358233
 31
0.0
  0
LINE
  5
438
330
17
100
AcDbEntity
  8
CTR34
370
    25
100
AcDbLine
 10
733.8492520321819
 20
631.0186345802362
 30
0.0
 11
733.8492520321828
 21
675.5417794985815
 31
0.0
  0
LINE
  5
439
330
17
100
AcDbEntity
  8
CTR34
370
    25
100
AcDbLine
 10
787.8492520321828
 20
640.3365784889144
 30
0.0
 11
787.8492520321828
 21
671.5382899613396
 31
0.0
  0
LINE
  5
43A
330
17
100
AcDbEntity
  8
CTR34
370
    25
100
AcDbLine
 10
841.8492520321828
 20
652.4777296204669
 30
0.0
 11
841.8492520321819
 21
667.5348004240979
 31
0.0
  0
LINE
  5
43B
330
17
100
AcDbEntity
  8
OUT57
370
    25
100
AcDbLine
 10
552.8480906523586
 20
695.4441413534559
 30
0.0
 11
560.8480906523595
 21
695.4441413534557
 31
0.0
  0
LINE
  5
43C
330
17
100
AcDbEntity
  8
OUT57
370
    25
100
AcDbLine
 10
841.8947226302384
 20
395.8259739378905
 30
0.0
 11
841.8947226302384
 21
295.8259739378913
 31
0.0
  0
LINE
  5
43D
330
17
100
AcDbEntity
  8
OUT57
370
    25
100
AcDbLine
 10
838.6947226302385
 20
395.3161558467114
 30
0.0
 11
838.6947226302394
 21
296.3357920290705
 31
0.0
  0
LINE
  5
43E
330
17
100
AcDbEntity
  8
CTR34
370
    25
100
AcDbLine
 10
355.8947226302389
 20
377.0961694379666
 30
0.0
 11
355.8947226302389
 21
314.555778437815
 31
0.0
  0
LINE
  5
43F
330
17
100
AcDbEntity
  8
CTR34
370
    25
100
AcDbLine
 10
409.8947226302393
 20
399.3581435437259
 30
0.0
 11
409.8947226302384
 21
292.293804332056
 31
0.0
  0
LINE
  5
440
330
17
100
AcDbEntity
  8
CTR34
370
    25
100
AcDbLine
 10
463.8947226302384
 20
416.0124427059436
 30
0.0
 11
463.8947226302384
 21
275.639505169838
 31
0.0
  0
LINE
  5
441
330
17
100
AcDbEntity
  8
CTR34
370
    25
100
AcDbLine
 10
517.8947226302384
 20
427.5132711621036
 30
0.0
 11
517.8947226302384
 21
264.1386767136783
 31
0.0
  0
LINE
  5
442
330
17
100
AcDbEntity
  8
CTR34
370
    25
100
AcDbLine
 10
571.8947226302384
 20
434.1457749526759
 30
0.0
 11
571.8947226302384
 21
257.5061729231056
 31
0.0
  0
LINE
  5
443
330
17
100
AcDbEntity
  8
CTR34
370
    25
100
AcDbLine
 10
625.8947226302384
 20
435.8259739378909
 30
0.0
 11
625.8947226302384
 21
255.8259739378909
 31
0.0
  0
LINE
  5
444
330
17
100
AcDbEntity
  8
CTR34
370
    25
100
AcDbLine
 10
679.8947226302384
 20
433.3139302886145
 30
0.0
 11
679.8947226302384
 21
258.3380175871671
 31
0.0
  0
LINE
  5
445
330
17
100
AcDbEntity
  8
CTR34
370
    25
100
AcDbLine
 10
733.8947226302384
 20
425.8305270314317
 30
0.0
 11
733.8947226302384
 21
265.8214208443501
 31
0.0
  0
LINE
  5
446
330
17
100
AcDbEntity
  8
CTR34
370
    25
100
AcDbLine
 10
787.8947226302384
 20
413.4384260926354
 30
0.0
 11
787.8947226302384
 21
278.2135217831462
 31
0.0
  0
LINE
  5
447
330
17
100
AcDbEntity
  8
CTR34
370
    25
100
AcDbLine
 10
301.8947226302389
 20
345.8259739378909
 30
0.0
 11
841.8947226302384
 21
345.8259739378909
 31
0.0
  0
ARC
  5
448
330
17
100
AcDbEntity
  8
OUT57
370
    25
100
AcDbCircle
 10
306.8947226302389
 20
345.8259739378909
 30
0.0
 40
4.999999999999946
100
AcDbArc
 50
133.5252647130794
 51
226.4747352869206
  0
ARC
  5
449
330
17
100
AcDbEntity
  8
OUT57
370
    25
100
AcDbCircle
 10
621.0939525682656
 20
-189.5634004268386
 30
0.0
 40
625.6466252439063
100
AcDbArc
 50
69.33421879363615
 51
120.5109413878644
  0
ARC
  5
44A
330
17
100
AcDbEntity
  8
OUT57
370
    25
100
AcDbCircle
 10
621.0939525682656
 20
-189.5634004268386
 30
0.0
 40
624.0466252439063
100
AcDbArc
 50
69.27879954642808
 51
120.7551692219921
  0
ARC
  5
44B
330
17
100
AcDbEntity
  8
OUT57
370
    25
100
AcDbCircle
 10
621.0939525682656
 20
881.2153483026204
 30
0.0
 40
625.6466252439063
100
AcDbArc
 50
239.4890586121356
 51
290.6657812063638
  0
ARC
  5
44C
330
17
100
AcDbEntity
  8
OUT57
370
    25
100
AcDbCircle
 10
621.0939525682656
 20
881.2153483026204
 30
0.0
 40
624.0466252439063
100
AcDbArc
 50
239.2448307780078
 51
290.721200453572
  0
CIRCLE
  5
44D
330
17
100
AcDbEntity
  8
OUT57
370
    25
100
AcDbCircle
 10
556.8480906523578
 20
345.8259739378909
 30
0.0
 40
4.0
  0
LINE
  5
44E
330
17
100
AcDbEntity
  8
OUT57
370
    25
100
AcDbLine
 10
303.4947226302393
 20
347.6189891030872
 30
0.0
 11
303.4947226302384
 21
344.0329587726951
 31
0.0
  0
LINE
  5
44F
330
17
100
AcDbEntity
  8
OUT57
370
    25
100
AcDbLine
 10
124.6486559895579
 20
595.995708803938
 30
0.0
 11
187.2486559895587
 21
595.9957088039384
 31
0.0
  0
LINE
  5
450
330
17
100
AcDbEntity
  8
OUT57
370
    25
100
AcDbLine
 10
126.7125381468313
 20
600.995708803938
 30
0.0
 11
185.1847738322849
 21
600.9957088039382
 31
0.0
  0
ARC
  5
451
330
17
100
AcDbEntity
  8
OUT57
370
    25
100
AcDbCircle
 10
24.74430391323631
 20
513.7547225143773
 30
0.0
 40
129.4003840398835
100
AcDbArc
 50
9.460366133030971
 51
39.46111705177027
  0
ARC
  5
452
330
17
100
AcDbEntity
  8
OUT57
370
    25
100
AcDbCircle
 10
24.74430391323631
 20
513.7547225143773
 30
0.0
 40
131.0003840398835
100
AcDbArc
 50
9.460366133030971
 51
38.8874036932969
  0
ARC
  5
453
330
17
100
AcDbEntity
  8
OUT57
370
    25
100
AcDbCircle
 10
155.9486559895667
 20
537.8957088039383
 30
0.0
 40
5.0
100
AcDbArc
 50
237.9703476989933
 51
302.0296523005455
  0
ARC
  5
454
330
17
100
AcDbEntity
  8
OUT57
370
    25
100
AcDbCircle
 10
155.9486559895667
 20
537.8957088039383
 30
0.0
 40
3.399999999999999
100
AcDbArc
 50
237.9703476989933
 51
302.0296523005455
  0
ARC
  5
455
330
17
100
AcDbEntity
  8
OUT57
370
    25
100
AcDbCircle
 10
157.5397302410042
 20
535.3523876039296
 30
0.0
 40
2.0
100
AcDbArc
 50
302.0296523005455
 51
350.5396338669821
  0
ARC
  5
456
330
17
100
AcDbEntity
  8
OUT57
370
    25
100
AcDbCircle
 10
157.5397302410042
 20
535.3523876039296
 30
0.0
 40
0.3999999999999999
100
AcDbArc
 50
302.0296523005455
 51
350.5396338669821
  0
ARC
  5
457
330
17
100
AcDbEntity
  8
OUT57
370
    25
100
AcDbCircle
 10
154.3575817381102
 20
535.3523876039418
 30
0.0
 40
2.0
100
AcDbArc
 50
189.4603661330309
 51
237.9703476989933
  0
ARC
  5
458
330
17
100
AcDbEntity
  8
OUT57
370
    25
100
AcDbCircle
 10
154.3575817381102
 20
535.3523876039418
 30
0.0
 40
0.3999999999999999
100
AcDbArc
 50
189.4603661330309
 51
237.9703476989933
  0
ARC
  5
459
330
17
100
AcDbEntity
  8
OUT57
370
    25
100
AcDbCircle
 10
287.1530080658795
 20
513.7547225143773
 30
0.0
 40
129.4003840398835
100
AcDbArc
 50
140.5388829482155
 51
170.5396338669821
  0
ARC
  5
45A
330
17
100
AcDbEntity
  8
OUT57
370
    25
100
AcDbCircle
 10
287.1530080658795
 20
513.7547225143773
 30
0.0
 40
131.0003840398835
100
AcDbArc
 50
141.1125963067031
 51
170.5396338669821
  0
LINE
  5
45B
330
17
100
AcDbEntity
  8
CL
370
    25
100
AcDbLine
 10
155.9486559895576
 20
605.9957088039382
 30
0.0
 11
155.9486559895581
 21
527.8957088039383
 31
0.0
  0
LINE
  5
45C
330
17
100
AcDbEntity
  8
OUT57
370
    25
100
AcDbLine
 10
102.448655989559
 20
504.3438813203652
 30
0.0
 11
209.4486559895577
 21
504.3438813203652
 31
0.0
  0
LINE
  5
45D
330
17
100
AcDbEntity
  8
OUT57
370
    25
100
AcDbLine
 10
104.087845401646
 20
511.8438813203652
 30
0.0
 11
207.8094665774715
 21
511.8438813203654
 31
0.0
  0
ARC
  5
45E
330
17
100
AcDbEntity
  8
OUT57
370
    25
100
AcDbCircle
 10
201.8231813092007
 20
526.2894384993598
 30
0.0
 40
101.7688742317647
100
AcDbArc
 50
192.4531449350437
 51
242.6252819895652
  0
ARC
  5
45F
330
17
100
AcDbEntity
  8
OUT57
370
    25
100
AcDbCircle
 10
201.8231813092007
 20
526.2894384993598
 30
0.0
 40
100.1688742317647
100
AcDbArc
 50
192.6553311408117
 51
242.1406851633205
  0
ARC
  5
460
330
17
100
AcDbEntity
  8
OUT57
370
    25
100
AcDbCircle
 10
155.9486559895586
 20
439.4985645860876
 30
0.0
 40
2.0
100
AcDbArc
 50
242.1406851633205
 51
297.8593148366796
  0
ARC
  5
461
330
17
100
AcDbEntity
  8
OUT57
370
    25
100
AcDbCircle
 10
155.9486559895586
 20
437.6928460582781
 30
0.0
 40
2.0
100
AcDbArc
 50
242.6252819895652
 51
297.3747180104348
  0
ARC
  5
462
330
17
100
AcDbEntity
  8
OUT57
370
    25
100
AcDbCircle
 10
110.074130669916
 20
526.2894384993598
 30
0.0
 40
101.7688742317647
100
AcDbArc
 50
297.3747180104348
 51
347.5468550649563
  0
ARC
  5
463
330
17
100
AcDbEntity
  8
OUT57
370
    25
100
AcDbCircle
 10
110.074130669916
 20
526.2894384993598
 30
0.0
 40
100.1688742317647
100
AcDbArc
 50
297.8593148366796
 51
347.3446688591883
  0
LINE
  5
464
330
17
100
AcDbEntity
  8
CL
370
    25
100
AcDbLine
 10
155.9486559895581
 20
516.8438813203652
 30
0.0
 11
155.9486559895586
 21
428.3194319547603
 31
0.0
  0
LINE
  5
465
330
17
100
AcDbEntity
  8
OUT57
370
    25
100
AcDbLine
 10
85.74865598955829
 20
391.2157769876144
 30
0.0
 11
226.1486559895566
 21
391.2157769876144
 31
0.0
  0
LINE
  5
466
330
17
100
AcDbEntity
  8
OUT57
370
    25
100
AcDbLine
 10
87.34855065662713
 20
401.2157769876141
 30
0.0
 11
224.5487613224887
 21
401.2157769876144
 31
0.0
  0
ARC
  5
467
330
17
100
AcDbEntity
  8
OUT57
370
    25
100
AcDbCircle
 10
157.5869644368072
 20
392.0401326636263
 30
0.0
 40
71.84303809585597
100
AcDbArc
 50
180.6574490557507
 51
268.6933139306261
  0
ARC
  5
468
330
17
100
AcDbEntity
  8
OUT57
370
    25
100
AcDbCircle
 10
157.5869644368072
 20
392.0401326636263
 30
0.0
 40
70.24303809585598
100
AcDbArc
 50
180.6574490557507
 51
268.6933139306261
  0
LINE
  5
469
330
17
100
AcDbEntity
  8
CL
370
    25
100
AcDbLine
 10
155.9486559895586
 20
406.2157769876141
 30
0.0
 11
155.9486559895586
 21
315.1913276220096
 31
0.0
  0
ARC
  5
46A
330
17
100
AcDbEntity
  8
OUT57
370
    25
100
AcDbCircle
 10
154.3103475423081
 20
392.0401326636254
 30
0.0
 40
71.84303809585597
100
AcDbArc
 50
271.3066860694003
 51
359.3425509442883
  0
ARC
  5
46B
330
17
100
AcDbEntity
  8
OUT57
370
    25
100
AcDbCircle
 10
154.3103475423081
 20
392.0401326636254
 30
0.0
 40
70.24303809585598
100
AcDbArc
 50
271.3066860694003
 51
359.3425509442883
  0
LINE
  5
46C
330
17
100
AcDbEntity
  8
OUT57
370
    25
100
AcDbLine
 10
74.24865598955921
 20
275.5876726548636
 30
0.0
 11
237.6486559895602
 21
275.5876726548636
 31
0.0
  0
LINE
  5
46D
330
17
100
AcDbEntity
  8
OUT57
370
    25
100
AcDbLine
 10
75.84750445278269
 20
288.0876726548638
 30
0.0
 11
236.0474781986859
 21
288.0876726548636
 31
0.0
  0
ARC
  5
46E
330
17
100
AcDbEntity
  8
OUT57
370
    25
100
AcDbCircle
 10
148.3953288661851
 20
278.4022948241648
 30
0.0
 40
74.20007544894584
100
AcDbArc
 50
182.1739151835111
 51
270.5211571464511
  0
ARC
  5
46F
330
17
100
AcDbEntity
  8
OUT57
370
    25
100
AcDbCircle
 10
148.3953288661851
 20
278.4022948241648
 30
0.0
 40
72.60007544894584
100
AcDbArc
 50
182.1739151835111
 51
270.5211571464511
  0
ARC
  5
470
330
17
100
AcDbEntity
  8
OUT57
370
    25
100
AcDbCircle
 10
163.5019831129348
 20
278.402294824162
 30
0.0
 40
74.20007544894584
100
AcDbArc
 50
269.4788428533406
 51
357.8260848164628
  0
ARC
  5
471
330
17
100
AcDbEntity
  8
OUT57
370
    25
100
AcDbCircle
 10
163.5019831129348
 20
278.402294824162
 30
0.0
 40
72.60007544894584
100
AcDbArc
 50
269.4788428533406
 51
357.8260848164628
  0
LINE
  5
472
330
17
100
AcDbEntity
  8
CL
370
    25
100
AcDbLine
 10
155.9486559895586
 20
293.0876726548636
 30
0.0
 11
155.9486559895595
 21
199.5632232892587
 31
0.0
  0
LINE
  5
473
330
17
100
AcDbEntity
  8
OUT57
370
    25
100
AcDbLine
 10
126.7125381468313
 20
595.9957088039377
 30
0.0
 11
126.7125381468313
 21
600.9957088039377
 31
0.0
  0
LINE
  5
474
330
17
100
AcDbEntity
  8
OUT57
370
    25
100
AcDbLine
 10
185.1847738322849
 20
595.9957088039386
 30
0.0
 11
185.1847738322849
 21
600.9957088039386
 31
0.0
  0
LINE
  5
475
330
17
100
AcDbEntity
  8
OUT57
370
    25
100
AcDbLine
 10
104.087845401646
 20
504.3438813203652
 30
0.0
 11
104.087845401646
 21
511.8438813203652
 31
0.0
  0
LINE
  5
476
330
17
100
AcDbEntity
  8
OUT57
370
    25
100
AcDbLine
 10
207.8094665774715
 20
504.3438813203652
 30
0.0
 11
207.8094665774715
 21
511.8438813203652
 31
0.0
  0
LINE
  5
477
330
17
100
AcDbEntity
  8
OUT57
370
    25
100
AcDbLine
 10
87.3485506566276
 20
391.234136025831
 30
0.0
 11
87.3485506566276
 21
401.2157769876144
 31
0.0
  0
LINE
  5
478
330
17
100
AcDbEntity
  8
OUT57
370
    25
100
AcDbLine
 10
224.5487613224887
 20
391.2341360258756
 30
0.0
 11
224.5487613224887
 21
401.2157769876144
 31
0.0
  0
LINE
  5
479
330
17
100
AcDbEntity
  8
OUT57
370
    25
100
AcDbLine
 10
149.0702366288201
 20
204.2052888458829
 30
0.0
 11
162.8270753500082
 21
204.2052888458829
 31
0.0
  0
LINE
  5
47A
330
17
100
AcDbEntity
  8
OUT57
370
    25
100
AcDbLine
 10
149.0702366288201
 20
205.8052888458828
 30
0.0
 11
162.8270753500082
 21
205.8052888458828
 31
0.0
  0
LINE
  5
47B
330
17
100
AcDbEntity
  8
OUT57
370
    25
100
AcDbLine
 10
75.84750445278269
 20
275.6483652544839
 30
0.0
 11
75.84750445278269
 21
288.0876726548636
 31
0.0
  0
LINE
  5
47C
330
17
100
AcDbEntity
  8
DIM
370
    25
100
AcDbLine
 10
236.0474781986859
 20
288.0876726548636
 30
0.0
 11
236.0498075263358
 21
275.648365254448
 31
0.0
  0
LINE
  5
47D
330
17
100
AcDbEntity
  8
OUT57
370
    25
100
AcDbLine
 10
1102.724144523419
 20
539.6192300612283
 30
0.0
 11
942.7241445233535
 21
539.619230061228
 31
0.0
  0
LINE
  5
47E
330
17
100
AcDbEntity
  8
OUT57
370
    25
100
AcDbLine
 10
1100.864260499832
 20
562.1192300612283
 30
0.0
 11
944.5840285469417
 21
562.1192300612283
 31
0.0
  0
ARC
  5
47F
330
17
100
AcDbEntity
  8
OUT57
370
    25
100
AcDbCircle
 10
1020.399468300154
 20
585.1001492105333
 30
0.0
 40
90.01094339299212
100
AcDbArc
 50
210.3500810576922
 51
271.4799194718565
  0
ARC
  5
480
330
17
100
AcDbEntity
  8
OUT57
370
    25
100
AcDbCircle
 10
1020.399468300154
 20
585.1001492105333
 30
0.0
 40
88.41094339299214
100
AcDbArc
 50
210.9591193086748
 51
271.4799194718565
  0
ARC
  5
481
330
17
100
AcDbEntity
  8
OUT57
370
    25
100
AcDbCircle
 10
1025.048820746618
 20
585.1001492105315
 30
0.0
 40
90.01094339299212
100
AcDbArc
 50
268.520080528091
 51
329.6499189422626
  0
ARC
  5
482
330
17
100
AcDbEntity
  8
OUT57
370
    25
100
AcDbCircle
 10
1025.048820746618
 20
585.1001492105315
 30
0.0
 40
88.41094339299214
100
AcDbArc
 50
268.520080528091
 51
329.0408806913252
  0
LINE
  5
483
330
17
100
AcDbEntity
  8
CL
370
    25
100
AcDbLine
 10
1022.724144523353
 20
567.1192300612281
 30
0.0
 11
1022.724144523353
 21
490.1176495335737
 31
0.0
  0
LINE
  5
484
330
17
100
AcDbEntity
  8
OUT57
370
    25
100
AcDbLine
 10
1110.224144523894
 20
443.0139945664278
 30
0.0
 11
935.2241445233534
 21
443.0139945664279
 31
0.0
  0
LINE
  5
485
330
17
100
AcDbEntity
  8
OUT57
370
    25
100
AcDbLine
 10
1108.445565925661
 20
463.0139945664277
 30
0.0
 11
937.0027231215859
 21
463.0139945664279
 31
0.0
  0
ARC
  5
486
330
17
100
AcDbEntity
  8
OUT57
370
    25
100
AcDbCircle
 10
1022.832160559579
 20
485.1114791974571
 30
0.0
 40
97.19754465038334
100
AcDbArc
 50
205.6652585551039
 51
269.9363269484536
  0
ARC
  5
487
330
17
100
AcDbEntity
  8
OUT57
370
    25
100
AcDbCircle
 10
1022.832160559579
 20
485.1114791974571
 30
0.0
 40
95.59754465038336
100
AcDbArc
 50
206.126952851564
 51
269.9363269484536
  0
ARC
  5
488
330
17
100
AcDbEntity
  8
OUT57
370
    25
100
AcDbCircle
 10
1022.61612848767
 20
485.1114791974575
 30
0.0
 40
97.19754465038334
100
AcDbArc
 50
270.0636730512598
 51
334.3347414446222
  0
ARC
  5
489
330
17
100
AcDbEntity
  8
OUT57
370
    25
100
AcDbCircle
 10
1022.61612848767
 20
485.1114791974575
 30
0.0
 40
95.59754465038336
100
AcDbArc
 50
270.0636730512598
 51
333.873047148436
  0
LINE
  5
48A
330
17
100
AcDbEntity
  8
CL
370
    25
100
AcDbLine
 10
1022.724144523353
 20
468.0139945664279
 30
0.0
 11
1022.724144523353
 21
382.913991629988
 31
0.0
  0
LINE
  5
48B
330
17
100
AcDbEntity
  8
OUT57
370
    25
100
AcDbLine
 10
1112.724144523353
 20
338.310336662842
 30
0.0
 11
932.7241445233536
 21
338.310336662842
 31
0.0
  0
LINE
  5
48C
330
17
100
AcDbEntity
  8
OUT57
370
    25
100
AcDbLine
 10
1110.973483171908
 20
355.810336662842
 30
0.0
 11
934.4748058747805
 21
355.810336662842
 31
0.0
  0
ARC
  5
48D
330
17
100
AcDbEntity
  8
OUT57
370
    25
100
AcDbCircle
 10
1029.791443834303
 20
381.0243134930417
 30
0.0
 40
106.049726129644
100
AcDbArc
 50
203.7516531377165
 51
266.1788987452614
  0
ARC
  5
48E
330
17
100
AcDbEntity
  8
OUT57
370
    25
100
AcDbCircle
 10
1029.791443834303
 20
381.0243134930417
 30
0.0
 40
104.449726129644
100
AcDbArc
 50
204.1384484714371
 51
266.1788987452614
  0
ARC
  5
48F
330
17
100
AcDbEntity
  8
OUT57
370
    25
100
AcDbCircle
 10
1015.656845212385
 20
381.0243134930417
 30
0.0
 40
106.0497261296441
100
AcDbArc
 50
273.8211012547385
 51
336.2483468622835
  0
ARC
  5
490
330
17
100
AcDbEntity
  8
OUT57
370
    25
100
AcDbCircle
 10
1015.656845212385
 20
381.0243134930417
 30
0.0
 40
104.4497261296441
100
AcDbArc
 50
273.8211012547385
 51
335.861551528549
  0
LINE
  5
491
330
17
100
AcDbEntity
  8
CL
370
    25
100
AcDbLine
 10
1022.724144523353
 20
360.8103366628423
 30
0.0
 11
1022.724144523353
 21
270.1997000088595
 31
0.0
  0
LINE
  5
492
330
17
100
AcDbEntity
  8
OUT57
370
    25
100
AcDbLine
 10
1111.024144523353
 20
228.0960450417133
 30
0.0
 11
934.4241445233533
 21
228.0960450417133
 31
0.0
  0
LINE
  5
493
330
17
100
AcDbEntity
  8
OUT57
370
    25
100
AcDbLine
 10
1109.353340106315
 20
243.0960450417133
 30
0.0
 11
936.0949489403916
 21
243.0960450417133
 31
0.0
  0
ARC
  5
494
330
17
100
AcDbEntity
  8
OUT57
370
    25
100
AcDbCircle
 10
1026.128788585337
 20
255.4259143048648
 30
0.0
 40
95.69045666353657
100
AcDbArc
 50
196.5951384302258
 51
267.9609992125568
  0
ARC
  5
495
330
17
100
AcDbEntity
  8
OUT57
370
    25
100
AcDbCircle
 10
1026.128788585337
 20
255.4259143048648
 30
0.0
 40
94.09045666353657
100
AcDbArc
 50
196.8857236090868
 51
267.9609992125568
  0
ARC
  5
496
330
17
100
AcDbEntity
  8
OUT57
370
    25
100
AcDbCircle
 10
1019.319500461368
 20
255.4259143048648
 30
0.0
 40
95.69045666353661
100
AcDbArc
 50
272.0390007874431
 51
343.4048615697876
  0
ARC
  5
497
330
17
100
AcDbEntity
  8
OUT57
370
    25
100
AcDbCircle
 10
1019.319500461368
 20
255.4259143048648
 30
0.0
 40
94.09045666353661
100
AcDbArc
 50
272.0390007874431
 51
343.1142763909132
  0
LINE
  5
498
330
17
100
AcDbEntity
  8
CL
370
    25
100
AcDbLine
 10
1022.724144523353
 20
248.0960450417135
 30
0.0
 11
1022.724144523353
 21
154.7930346783594
 31
0.0
  0
LINE
  5
499
330
17
100
AcDbEntity
  8
OUT57
370
    25
100
AcDbLine
 10
1090.324144523463
 20
625.422976482673
 30
0.0
 11
955.1241445233531
 21
625.4229764826732
 31
0.0
  0
LINE
  5
49A
330
17
100
AcDbEntity
  8
OUT57
370
    25
100
AcDbLine
 10
1088.724144523353
 20
648.4229764826729
 30
0.0
 11
956.7241445233516
 21
648.4229764826732
 31
0.0
  0
ARC
  5
49B
330
17
100
AcDbEntity
  8
OUT57
370
    25
100
AcDbCircle
 10
1022.179084462919
 20
681.8753463517323
 30
0.0
 40
87.65406456138753
100
AcDbArc
 50
220.0934337035717
 51
270.356285158754
  0
ARC
  5
49C
330
17
100
AcDbEntity
  8
OUT57
370
    25
100
AcDbCircle
 10
1022.627731966507
 20
683.9890222139185
 30
0.0
 40
88.16611906209628
100
AcDbArc
 50
221.6262920739816
 51
270.0561891672716
  0
ARC
  5
49D
330
17
100
AcDbEntity
  8
OUT57
370
    25
100
AcDbCircle
 10
1023.269204583897
 20
681.8753463517323
 30
0.0
 40
87.65406456138753
100
AcDbArc
 50
269.6437148412199
 51
319.9065662964283
  0
ARC
  5
49E
330
17
100
AcDbEntity
  8
OUT57
370
    25
100
AcDbCircle
 10
1022.8205570804
 20
683.9890222134909
 30
0.0
 40
88.16611906166851
100
AcDbArc
 50
269.9438108326502
 51
318.3737079261395
  0
LINE
  5
49F
330
17
100
AcDbEntity
  8
CL
370
    25
100
AcDbLine
 10
1022.724144523353
 20
630.4229764826732
 30
0.0
 11
1022.724144523353
 21
589.2228850283745
 31
0.0
  0
LINE
  5
4A0
330
17
100
AcDbEntity
  8
OUT57
370
    25
100
AcDbLine
 10
1073.324144523355
 20
688.1843171917325
 30
0.0
 11
972.124144523353
 21
688.1843171917328
 31
0.0
  0
LINE
  5
4A1
330
17
100
AcDbEntity
  8
OUT57
370
    25
100
AcDbLine
 10
1071.724144523353
 20
713.1843171917325
 30
0.0
 11
973.7241445233534
 21
713.184317191733
 31
0.0
  0
ARC
  5
4A2
330
17
100
AcDbEntity
  8
OUT57
370
    25
100
AcDbCircle
 10
1022.724144523354
 20
766.0236176624253
 30
0.0
 40
92.84027519223151
100
AcDbArc
 50
236.9738274068993
 51
303.0261725931008
  0
ARC
  5
4A3
330
17
100
AcDbEntity
  8
OUT57
370
    25
100
AcDbCircle
 10
1022.724144523354
 20
771.0001448217715
 30
0.0
 40
96.22609472512223
100
AcDbArc
 50
239.3882860238083
 51
300.6117139761917
  0
LINE
  5
4A4
330
17
100
AcDbEntity
  8
CL
370
    25
100
AcDbLine
 10
1022.724144523352
 20
653.4229764826732
 30
0.0
 11
1022.724144523353
 21
630.422976482673
 31
0.0
  0
LINE
  5
4A5
330
17
100
AcDbEntity
  8
OUT57
370
    25
100
AcDbLine
 10
956.7241445233516
 20
648.4229764826732
 30
0.0
 11
956.7241445233534
 21
625.4229764826732
 31
0.0
  0
LINE
  5
4A6
330
17
100
AcDbEntity
  8
OUT57
370
    25
100
AcDbLine
 10
1088.724144523353
 20
648.4229764826729
 30
0.0
 11
1088.724144523352
 21
625.422976482673
 31
0.0
  0
LINE
  5
4A7
330
17
100
AcDbEntity
  8
OUT57
370
    25
100
AcDbLine
 10
936.0949489403916
 20
228.0960450417133
 30
0.0
 11
936.0949489403916
 21
243.0960450417133
 31
0.0
  0
LINE
  5
4A8
330
17
100
AcDbEntity
  8
OUT57
370
    25
100
AcDbLine
 10
1109.353340106315
 20
228.0960450417133
 30
0.0
 11
1109.353340106315
 21
243.0960450417133
 31
0.0
  0
LINE
  5
4A9
330
17
100
AcDbEntity
  8
OUT57
370
    25
100
AcDbLine
 10
934.4748058747805
 20
338.310336662842
 30
0.0
 11
934.4748058747805
 21
355.810336662842
 31
0.0
  0
LINE
  5
4AA
330
17
100
AcDbEntity
  8
OUT57
370
    25
100
AcDbLine
 10
937.0027231215859
 20
443.0139945664278
 30
0.0
 11
937.0027231215859
 21
463.0139945664277
 31
0.0
  0
LINE
  5
4AB
330
17
100
AcDbEntity
  8
OUT57
370
    25
100
AcDbLine
 10
1108.445565925662
 20
443.0139945664278
 30
0.0
 11
1108.445565925661
 21
463.0139945664277
 31
0.0
  0
LINE
  5
4AC
330
17
100
AcDbEntity
  8
OUT57
370
    25
100
AcDbLine
 10
944.5840285469399
 20
539.6192300612283
 30
0.0
 11
944.5840285469408
 21
562.1192300612283
 31
0.0
  0
LINE
  5
4AD
330
17
100
AcDbEntity
  8
OUT57
370
    25
100
AcDbLine
 10
1100.864260499832
 20
539.6192300612283
 30
0.0
 11
1100.864260499832
 21
562.1192300612283
 31
0.0
  0
LINE
  5
4AE
330
17
100
AcDbEntity
  8
CL
370
    25
100
AcDbLine
 10
1022.724144523353
 20
688.1843171917325
 30
0.0
 11
1022.724144523353
 21
697.7299729693586
 31
0.0
  0
LINE
  5
4AF
330
17
100
AcDbEntity
  8
CL
370
    25
100
AcDbLine
 10
1022.724144523353
 20
718.1843171917326
 30
0.0
 11
1022.724144523353
 21
668.1843171917326
 31
0.0
  0
LINE
  5
4B0
330
17
100
AcDbEntity
  8
OUT57
370
    25
100
AcDbLine
 10
973.7241445233545
 20
713.184317191733
 30
0.0
 11
973.7241445233534
 21
688.1843171917328
 31
0.0
  0
LINE
  5
4B1
330
17
100
AcDbEntity
  8
OUT57
370
    25
100
AcDbLine
 10
1071.724144523353
 20
713.1843171917325
 30
0.0
 11
1071.724144523353
 21
688.1843171917325
 31
0.0
  0
LINE
  5
4B2
330
17
100
AcDbEntity
  8
OUT57
370
    25
100
AcDbLine
 10
1110.973483171908
 20
355.810336662842
 30
0.0
 11
1110.973483171908
 21
338.310336662842
 31
0.0
  0
LINE
  5
4B3
330
17
100
AcDbEntity
  8
CL
370
    25
100
AcDbLine
 10
804.5439860735028
 20
593.2215442719325
 30
0.0
 11
804.5439860735019
 21
675.3142866984003
 31
0.0
  0
LINE
  5
4B4
330
17
100
AcDbEntity
  8
OUT53
370
    25
100
AcDbLine
 10
570.5567433884921
 20
652.4826792693017
 30
0.0
 11
570.5567433884921
 21
763.6829328607846
 31
0.0
  0
ENDSEC
  0
SECTION
  2
OBJECTS
  0
DICTIONARY
  5
C
330
0
100
AcDbDictionary
281
     1
  3
ACAD_COLOR
350
1D7
  3
ACAD_GROUP
350
D
  3
ACAD_LAYOUT
350
D1
  3
ACAD_MATERIAL
350
1D6
  3
ACAD_MLINESTYLE
350
1A
  3
ACAD_PLOTSETTINGS
350
D2
  3
ACAD_PLOTSTYLENAME
350
CF
  3
ACAD_TABLESTYLE
350
1D8
  3
ACDBVARIABLEDICTIONARY
350
2D
  0
DICTIONARY
  5
215
330
2
100
AcDbDictionary
280
     1
281
     1
  3
ACAD_LAYERSTATES
360
216
  0
DICTIONARY
  5
1D7
102
{ACAD_REACTORS
330
C
102
}
330
C
100
AcDbDictionary
281
     1
  0
DICTIONARY
  5
D
102
{ACAD_REACTORS
330
C
102
}
330
C
100
AcDbDictionary
281
     1
  0
DICTIONARY
  5
D1
102
{ACAD_REACTORS
330
C
102
}
330
C
100
AcDbDictionary
281
     1
  3
Layout1
350
D4
  3
Model
350
D3
  0
DICTIONARY
  5
1D6
102
{ACAD_REACTORS
330
C
102
}
330
C
100
AcDbDictionary
281
     1
  0
DICTIONARY
  5
1A
102
{ACAD_REACTORS
330
C
102
}
330
C
100
AcDbDictionary
281
     1
  3
STANDARD
350
1B
  0
DICTIONARY
  5
D2
102
{ACAD_REACTORS
330
C
102
}
330
C
100
AcDbDictionary
281
     1
  0
ACDBDICTIONARYWDFLT
  5
CF
102
{ACAD_REACTORS
330
C
102
}
330
C
100
AcDbDictionary
281
     1
  3
Normal
350
D0
100
AcDbDictionaryWithDefault
340
D0
  0
DICTIONARY
  5
1D8
102
{ACAD_REACTORS
330
C
102
}
330
C
100
AcDbDictionary
281
     1
  3
Standard
350
1D9
  0
DICTIONARY
  5
2D
102
{ACAD_REACTORS
330
C
102
}
330
C
100
AcDbDictionary
281
     1
  3
CTABLESTYLE
350
1DF
  3
DIMADEC
350
2E
  0
DICTIONARY
  5
216
102
{ACAD_REACTORS
330
215
102
}
330
215
100
AcDbDictionary
281
     1
  0
LAYOUT
  5
D4
102
{ACAD_REACTORS
330
D1
102
}
330
D1
100
AcDbPlotSettings
  1

  2
HP DeskJet 1100C Printer
  4

  6

 40
0.0
 41
0.0
 42
0.0
 43
0.0
 44
0.0
 45
0.0
 46
0.0
 47
0.0
 48
0.0
 49
0.0
140
0.0
141
0.0
142
1.0
143
1.0
 70
   688
 72
     0
 73
     0
 74
     5
  7

 75
    16
147
1.0
 76
     0
 77
     2
 78
   300
148
0.0
149
0.0
100
AcDbLayout
  1
Layout1
 70
     0
 71
     1
 10
0.0
 20
0.0
 11
420.0
 21
297.0
 12
0.0
 22
0.0
 32
0.0
 14
1.000000000000000E+20
 24
1.000000000000000E+20
 34
1.000000000000000E+20
 15
-1.000000000000000E+20
 25
-1.000000000000000E+20
 35
-1.000000000000000E+20
146
0.0
 13
0.0
 23
0.0
 33
0.0
 16
1.0
 26
0.0
 36
0.0
 17
0.0
 27
1.0
 37
0.0
 76
     0
330
14
  0
LAYOUT
  5
D3
102
{ACAD_REACTORS
330
D1
102
}
330
D1
100
AcDbPlotSettings
  1

  2
HP DeskJet 1100C Printer
  4

  6

 40
0.0
 41
0.0
 42
0.0
 43
0.0
 44
0.0
 45
0.0
 46
0.0
 47
0.0
 48
0.0
 49
0.0
140
0.0
141
0.0
142
1.0
143
1.0
 70
  1712
 72
     0
 73
     0
 74
     0
  7

 75
     0
147
1.0
 76
     0
 77
     2
 78
   300
148
0.0
149
0.0
100
AcDbLayout
  1
Model
 70
     1
 71
     0
 10
0.0
 20
0.0
 11
12.0
 21
9.0
 12
0.0
 22
0.0
 32
0.0
 14
0.0
 24
0.0
 34
0.0
 15
0.0
 25
0.0
 35
0.0
146
0.0
 13
0.0
 23
0.0
 33
0.0
 16
1.0
 26
0.0
 36
0.0
 17
0.0
 27
1.0
 37
0.0
 76
     0
330
17
  0
MLINESTYLE
  5
1B
102
{ACAD_REACTORS
330
1A
102
}
330
1A
100
AcDbMlineStyle
  2
STANDARD
 70
     0
  3

 62
   256
 51
90.0
 52
90.0
 71
     2
 49
0.5
 62
   256
  6
BYLAYER
 49
-0.5
 62
   256
  6
BYLAYER
  0
ACDBPLACEHOLDER
  5
D0
102
{ACAD_REACTORS
330
CF
102
}
330
CF
  0
TABLESTYLE
  5
1D9
102
{ACAD_REACTORS
330
1D8
102
}
330
1D8
100
AcDbTableStyle
  3
Standard
 70
     0
 71
     0
 40
0.06
 41
0.06
280
     0
281
     0
  7
STANDARD
140
0.18
170
     2
 62
     0
 63
     7
283
     0
274
    -2
284
     1
 64
     0
275
    -2
285
     1
 65
     0
276
    -2
286
     1
 66
     0
277
    -2
287
     1
 67
     0
278
    -2
288
     1
 68
     0
279
    -2
289
     1
 69
     0
  7
STANDARD
140
0.25
170
     5
 62
     0
 63
     7
283
     0
274
    -2
284
     1
 64
     0
275
    -2
285
     1
 65
     0
276
    -2
286
     1
 66
     0
277
    -2
287
     1
 67
     0
278
    -2
288
     1
 68
     0
279
    -2
289
     1
 69
     0
  7
STANDARD
140
0.18
170
     5
 62
     0
 63
     7
283
     0
274
    -2
284
     1
 64
     0
275
    -2
285
     1
 65
     0
276
    -2
286
     1
 66
     0
277
    -2
287
     1
 67
     0
278
    -2
288
     1
 68
     0
279
    -2
289
     1
 69
     0
  0
DICTIONARYVAR
  5
1DF
102
{ACAD_REACTORS
330
2D
102
}
330
2D
100
DictionaryVariables
280
     0
  1
STANDARD
  0
DICTIONARYVAR
  5
2E
102
{ACAD_REACTORS
330
2D
102
}
330
2D
100
DictionaryVariables
280
     0
  1
4
  0
ENDSEC
  0
EOF
