  0
SECTION
  2
HEADER
  9
$ACADVER
  1
AC1018
  9
$ACADMAINTVER
 70
    76
  9
$DWGCODEPAGE
  3
ANSI_1252
  9
$INSBASE
 10
0.0
 20
0.0
 30
0.0
  9
$EXTMIN
 10
0.0
 20
0.0
 30
0.0
  9
$EXTMAX
 10
1189.0
 20
841.0000000000001
 30
0.0
  9
$LIMMIN
 10
0.0
 20
0.0
  9
$LIMMAX
 10
1200.0
 20
840.0
  9
$ORTHOMODE
 70
     1
  9
$REGENMODE
 70
     1
  9
$FILLMODE
 70
     1
  9
$QTEXTMODE
 70
     0
  9
$MIRRTEXT
 70
     1
  9
$LTSCALE
 40
10.0
  9
$ATTMODE
 70
     1
  9
$TEXTSIZE
 40
3.0
  9
$TRACEWID
 40
10.0
  9
$TEXTSTYLE
  7
STANDARD
  9
$CLAYER
  8
OUT57
  9
$CELTYPE
  6
BYLAYER
  9
$CECOLOR
 62
   256
  9
$CELTSCALE
 40
1.0
  9
$DISPSILH
 70
     0
  9
$DIMSCALE
 40
0.0
  9
$DIMASZ
 40
3.0
  9
$DIMEXO
 40
2.5
  9
$DIMDLI
 40
10.0
  9
$DIMRND
 40
0.0
  9
$DIMDLE
 40
1.25
  9
$DIMEXE
 40
2.5
  9
$DIMTP
 40
0.0
  9
$DIMTM
 40
0.0
  9
$DIMTXT
 40
5.0
  9
$DIMCEN
 40
-3.0
  9
$DIMTSZ
 40
0.0
  9
$DIMTOL
 70
     0
  9
$DIMLIM
 70
     0
  9
$DIMTIH
 70
     0
  9
$DIMTOH
 70
     0
  9
$DIMSE1
 70
     0
  9
$DIMSE2
 70
     0
  9
$DIMTAD
 70
     1
  9
$DIMZIN
 70
     0
  9
$DIMBLK
  1

  9
$DIMASO
 70
     1
  9
$DIMSHO
 70
     0
  9
$DIMPOST
  1

  9
$DIMAPOST
  1

  9
$DIMALT
 70
     0
  9
$DIMALTD
 70
     2
  9
$DIMALTF
 40
0.039
  9
$DIMLFAC
 40
1.0
  9
$DIMTOFL
 70
     1
  9
$DIMTVP
 40
1.5
  9
$DIMTIX
 70
     0
  9
$DIMSOXD
 70
     0
  9
$DIMSAH
 70
     0
  9
$DIMBLK1
  1

  9
$DIMBLK2
  1

  9
$DIMSTYLE
  2
STANDARD
  9
$DIMCLRD
 70
     0
  9
$DIMCLRE
 70
     0
  9
$DIMCLRT
 70
     0
  9
$DIMTFAC
 40
0.75
  9
$DIMGAP
 40
1.5
  9
$DIMJUST
 70
     0
  9
$DIMSD1
 70
     0
  9
$DIMSD2
 70
     0
  9
$DIMTOLJ
 70
     1
  9
$DIMTZIN
 70
     0
  9
$DIMALTZ
 70
     0
  9
$DIMALTTZ
 70
     0
  9
$DIMUPT
 70
     0
  9
$DIMDEC
 70
     2
  9
$DIMTDEC
 70
     2
  9
$DIMALTU
 70
     2
  9
$DIMALTTD
 70
     2
  9
$DIMTXSTY
  7
STANDARD
  9
$DIMAUNIT
 70
     0
  9
$DIMADEC
 70
     0
  9
$DIMALTRND
 40
0.0
  9
$DIMAZIN
 70
     0
  9
$DIMDSEP
 70
    46
  9
$DIMATFIT
 70
     3
  9
$DIMFRAC
 70
     0
  9
$DIMLDRBLK
  1

  9
$DIMLUNIT
 70
     2
  9
$DIMLWD
 70
    -2
  9
$DIMLWE
 70
    -2
  9
$DIMTMOVE
 70
     2
  9
$LUNITS
 70
     2
  9
$LUPREC
 70
     2
  9
$SKETCHINC
 40
1.0
  9
$FILLETRAD
 40
0.0
  9
$AUNITS
 70
     0
  9
$AUPREC
 70
     4
  9
$MENU
  1
acad
  9
$ELEVATION
 40
0.0
  9
$PELEVATION
 40
0.0
  9
$THICKNESS
 40
0.0
  9
$LIMCHECK
 70
     0
  9
$CHAMFERA
 40
0.0
  9
$CHAMFERB
 40
0.0
  9
$CHAMFERC
 40
0.0
  9
$CHAMFERD
 40
0.0
  9
$SKPOLY
 70
     1
  9
$TDCREATE
 40
2449262.478770371
  9
$TDUCREATE
 40
2449262.437103704
  9
$TDUPDATE
 40
2456531.804728079
  9
$TDUUPDATE
 40
2456531.763061412
  9
$TDINDWG
 40
0.2831902546
  9
$TDUSRTIMER
 40
0.2831901389
  9
$USRTIMER
 70
     1
  9
$ANGBASE
 50
0.0
  9
$ANGDIR
 70
     0
  9
$PDMODE
 70
     3
  9
$PDSIZE
 40
0.0
  9
$PLINEWID
 40
0.0
  9
$SPLFRAME
 70
     0
  9
$SPLINETYPE
 70
     6
  9
$SPLINESEGS
 70
     6
  9
$HANDSEED
  5
998
  9
$SURFTAB1
 70
    18
  9
$SURFTAB2
 70
    18
  9
$SURFTYPE
 70
     6
  9
$SURFU
 70
    18
  9
$SURFV
 70
    18
  9
$UCSBASE
  2

  9
$UCSNAME
  2

  9
$UCSORG
 10
0.0
 20
0.0
 30
0.0
  9
$UCSXDIR
 10
1.0
 20
0.0
 30
0.0
  9
$UCSYDIR
 10
0.0
 20
1.0
 30
0.0
  9
$UCSORTHOREF
  2

  9
$UCSORTHOVIEW
 70
     0
  9
$UCSORGTOP
 10
0.0
 20
0.0
 30
0.0
  9
$UCSORGBOTTOM
 10
0.0
 20
0.0
 30
0.0
  9
$UCSORGLEFT
 10
0.0
 20
0.0
 30
0.0
  9
$UCSORGRIGHT
 10
0.0
 20
0.0
 30
0.0
  9
$UCSORGFRONT
 10
0.0
 20
0.0
 30
0.0
  9
$UCSORGBACK
 10
0.0
 20
0.0
 30
0.0
  9
$PUCSBASE
  2

  9
$PUCSNAME
  2

  9
$PUCSORG
 10
0.0
 20
0.0
 30
0.0
  9
$PUCSXDIR
 10
1.0
 20
0.0
 30
0.0
  9
$PUCSYDIR
 10
0.0
 20
1.0
 30
0.0
  9
$PUCSORTHOREF
  2

  9
$PUCSORTHOVIEW
 70
     0
  9
$PUCSORGTOP
 10
0.0
 20
0.0
 30
0.0
  9
$PUCSORGBOTTOM
 10
0.0
 20
0.0
 30
0.0
  9
$PUCSORGLEFT
 10
0.0
 20
0.0
 30
0.0
  9
$PUCSORGRIGHT
 10
0.0
 20
0.0
 30
0.0
  9
$PUCSORGFRONT
 10
0.0
 20
0.0
 30
0.0
  9
$PUCSORGBACK
 10
0.0
 20
0.0
 30
0.0
  9
$USERI1
 70
     0
  9
$USERI2
 70
     0
  9
$USERI3
 70
     0
  9
$USERI4
 70
     0
  9
$USERI5
 70
     0
  9
$USERR1
 40
0.0
  9
$USERR2
 40
0.0
  9
$USERR3
 40
0.0
  9
$USERR4
 40
0.0
  9
$USERR5
 40
0.0
  9
$WORLDVIEW
 70
     0
  9
$SHADEDGE
 70
     3
  9
$SHADEDIF
 70
    70
  9
$TILEMODE
 70
     1
  9
$MAXACTVP
 70
    16
  9
$PINSBASE
 10
0.0
 20
0.0
 30
0.0
  9
$PLIMCHECK
 70
     0
  9
$PEXTMIN
 10
1.000000000000000E+20
 20
1.000000000000000E+20
 30
1.000000000000000E+20
  9
$PEXTMAX
 10
-1.000000000000000E+20
 20
-1.000000000000000E+20
 30
-1.000000000000000E+20
  9
$PLIMMIN
 10
0.0
 20
0.0
  9
$PLIMMAX
 10
420.0
 20
297.0
  9
$UNITMODE
 70
     0
  9
$VISRETAIN
 70
     0
  9
$PLINEGEN
 70
     0
  9
$PSLTSCALE
 70
     0
  9
$TREEDEPTH
 70
  3020
  9
$CMLSTYLE
  2
STANDARD
  9
$CMLJUST
 70
     0
  9
$CMLSCALE
 40
1.0
  9
$PROXYGRAPHICS
 70
     1
  9
$MEASUREMENT
 70
     0
  9
$CELWEIGHT
370
    -1
  9
$ENDCAPS
280
     0
  9
$JOINSTYLE
280
     0
  9
$LWDISPLAY
290
     0
  9
$INSUNITS
 70
     0
  9
$HYPERLINKBASE
  1

  9
$STYLESHEET
  1

  9
$XEDIT
290
     1
  9
$CEPSNTYPE
380
     0
  9
$PSTYLEMODE
290
     1
  9
$FINGERPRINTGUID
  2
{536176E2-9547-11D4-ADCB-0060081B4383}
  9
$VERSIONGUID
  2
{0C91085F-B158-443A-836C-B02D4C03AB9E}
  9
$EXTNAMES
290
     1
  9
$PSVPSCALE
 40
0.0
  9
$OLESTARTUP
290
     0
  9
$SORTENTS
280
   127
  9
$INDEXCTL
280
     0
  9
$HIDETEXT
280
     0
  9
$XCLIPFRAME
290
     0
  9
$HALOGAP
280
     0
  9
$OBSCOLOR
 70
   257
  9
$OBSLTYPE
280
     0
  9
$INTERSECTIONDISPLAY
280
     0
  9
$INTERSECTIONCOLOR
 70
   257
  9
$DIMASSOC
280
     1
  9
$PROJECTNAME
  1

  0
ENDSEC
  0
SECTION
  2
CLASSES
  0
CLASS
  1
DICTIONARYVAR
  2
AcDbDictionaryVar
  3
ObjectDBX Classes
 90
        0
 91
        2
280
     0
281
     0
  0
CLASS
  1
ACDBDICTIONARYWDFLT
  2
AcDbDictionaryWithDefault
  3
ObjectDBX Classes
 90
        0
 91
        1
280
     0
281
     0
  0
CLASS
  1
TABLESTYLE
  2
AcDbTableStyle
  3
ObjectDBX Classes
 90
     2047
 91
        1
280
     0
281
     0
  0
CLASS
  1
SORTENTSTABLE
  2
AcDbSortentsTable
  3
ObjectDBX Classes
 90
        0
 91
        1
280
     0
281
     0
  0
ENDSEC
  0
SECTION
  2
TABLES
  0
TABLE
  2
VPORT
  5
8
330
0
100
AcDbSymbolTable
 70
     3
  0
VPORT
  5
997
330
8
100
AcDbSymbolTableRecord
100
AcDbViewportTableRecord
  2
*Active
 70
     0
 10
0.0
 20
0.0
 11
1.0
 21
1.0
 12
594.5068387250732
 22
449.3561404969543
 13
0.0
 23
0.0
 14
5.0
 24
5.0
 15
20.0
 25
20.0
 16
0.0
 26
0.0
 36
1.0
 17
0.0
 27
0.0
 37
0.0
 40
909.1469574042433
 41
1.753320683111954
 42
50.0
 43
0.0
 44
0.0
 50
0.0
 51
0.0
 71
     0
 72
  2000
 73
     1
 74
     2
 75
     0
 76
     0
 77
     0
 78
     1
281
     0
 65
     1
110
0.0
120
0.0
130
0.0
111
1.0
121
0.0
131
0.0
112
0.0
122
1.0
132
0.0
 79
     0
146
0.0
  0
ENDTAB
  0
TABLE
  2
LTYPE
  5
5
330
0
100
AcDbSymbolTable
 70
     6
  0
LTYPE
  5
11
330
5
100
AcDbSymbolTableRecord
100
AcDbLinetypeTableRecord
  2
BYBLOCK
 70
     0
  3

 72
    65
 73
     0
 40
0.0
  0
LTYPE
  5
12
330
5
100
AcDbSymbolTableRecord
100
AcDbLinetypeTableRecord
  2
BYLAYER
 70
     0
  3

 72
    65
 73
     0
 40
0.0
  0
LTYPE
  5
13
330
5
100
AcDbSymbolTableRecord
100
AcDbLinetypeTableRecord
  2
CONTINUOUS
 70
     0
  3
Solid line
 72
    65
 73
     0
 40
0.0
  0
LTYPE
  5
20
330
5
100
AcDbSymbolTableRecord
100
AcDbLinetypeTableRecord
  2
CENTER
 70
     0
  3
____ _ ____ _ ____ _ ____ _ ____ _ ____ _ ____ 
 72
    65
 73
     4
 40
50.0
 49
31.25
 74
     0
 49
-6.25
 74
     0
 49
6.25
 74
     0
 49
-6.25
 74
     0
  0
LTYPE
  5
10A
330
5
100
AcDbSymbolTableRecord
100
AcDbLinetypeTableRecord
  2
HIDDEN2
 70
     0
  3
Hidden (.5x) _ _ _ _ _ _ _ _ _ _ _ _ _ _ _ _ _
 72
    65
 73
     2
 40
0.1875
 49
0.125
 74
     0
 49
-0.0625
 74
     0
  0
LTYPE
  5
12A
330
5
100
AcDbSymbolTableRecord
100
AcDbLinetypeTableRecord
  2
CENTER2
 70
     0
  3
Center (.5x) ___ _ ___ _ ___ _ ___ _ ___ _ ___
 72
    65
 73
     4
 40
1.125
 49
0.75
 74
     0
 49
-0.125
 74
     0
 49
0.125
 74
     0
 49
-0.125
 74
     0
  0
LTYPE
  5
12B
330
5
100
AcDbSymbolTableRecord
100
AcDbLinetypeTableRecord
  2
HIDDENX2
 70
     0
  3
Hidden (2x) ____ ____ ____ ____ ____ ____ ____
 72
    65
 73
     2
 40
0.75
 49
0.5
 74
     0
 49
-0.25
 74
     0
  0
LTYPE
  5
12E
330
5
100
AcDbSymbolTableRecord
100
AcDbLinetypeTableRecord
  2
CENTERX2
 70
     0
  3
Center (2x) ________  __  ________  __  _____
 72
    65
 73
     4
 40
4.0
 49
2.5
 74
     0
 49
-0.5
 74
     0
 49
0.5
 74
     0
 49
-0.5
 74
     0
  0
ENDTAB
  0
TABLE
  2
LAYER
  5
2
330
0
100
AcDbSymbolTable
 70
    15
  0
LAYER
  5
E
330
2
100
AcDbSymbolTableRecord
100
AcDbLayerTableRecord
  2
0
 70
     0
 62
     7
  6
CONTINUOUS
370
    -3
390
D0
  0
LAYER
  5
23
330
2
100
AcDbSymbolTableRecord
100
AcDbLayerTableRecord
  2
BOX
 70
     0
 62
     3
  6
CONTINUOUS
370
    -3
390
D0
  0
LAYER
  5
24
330
2
100
AcDbSymbolTableRecord
100
AcDbLayerTableRecord
  2
BOR
 70
     0
 62
     4
  6
CONTINUOUS
370
    -3
390
D0
  0
LAYER
  5
25
330
2
100
AcDbSymbolTableRecord
100
AcDbLayerTableRecord
  2
CL
 70
     0
 62
     1
  6
CENTERX2
370
    -3
390
D0
  0
LAYER
  5
26
330
2
100
AcDbSymbolTableRecord
100
AcDbLayerTableRecord
  2
DIM
 70
     0
 62
     4
  6
CONTINUOUS
370
    -3
390
D0
  0
LAYER
  5
27
330
2
100
AcDbSymbolTableRecord
100
AcDbLayerTableRecord
  2
TEX
 70
     0
 62
     3
  6
CONTINUOUS
370
    -3
390
D0
  0
LAYER
  5
28
330
2
100
AcDbSymbolTableRecord
100
AcDbLayerTableRecord
  2
BORDER
 70
     0
 62
     3
  6
CONTINUOUS
370
    -3
390
D0
  0
LAYER
  5
D8
330
2
100
AcDbSymbolTableRecord
100
AcDbLayerTableRecord
  2
Defpoints
 70
     0
 62
     7
  6
CONTINUOUS
290
     0
370
    -3
390
D0
  0
LAYER
  5
10B
330
2
100
AcDbSymbolTableRecord
100
AcDbLayerTableRecord
  2
OUT57
 70
     0
 62
     7
  6
CONTINUOUS
370
    -3
390
D0
  0
LAYER
  5
10C
330
2
100
AcDbSymbolTableRecord
100
AcDbLayerTableRecord
  2
OUT56
 70
     0
 62
     6
  6
CONTINUOUS
370
    -3
390
D0
  0
LAYER
  5
10D
330
2
100
AcDbSymbolTableRecord
100
AcDbLayerTableRecord
  2
HID
 70
     0
 62
     5
  6
HIDDENX2
370
    -3
390
D0
  0
LAYER
  5
118
330
2
100
AcDbSymbolTableRecord
100
AcDbLayerTableRecord
  2
DIM34
 70
     0
 62
     3
  6
CONTINUOUS
370
    -3
390
D0
  0
LAYER
  5
137
330
2
100
AcDbSymbolTableRecord
100
AcDbLayerTableRecord
  2
TXT34
 70
     0
 62
   255
  6
CONTINUOUS
370
    -3
390
D0
  0
LAYER
  5
138
330
2
100
AcDbSymbolTableRecord
100
AcDbLayerTableRecord
  2
BOR34
 70
     0
 62
     3
  6
CONTINUOUS
370
    -3
390
D0
  0
LAYER
  5
145
330
2
100
AcDbSymbolTableRecord
100
AcDbLayerTableRecord
  2
BOR715
 70
     0
 62
    15
  6
CONTINUOUS
370
    -3
390
D0
  0
ENDTAB
  0
TABLE
  2
STYLE
  5
3
330
0
100
AcDbSymbolTable
 70
     5
  0
STYLE
  5
F
330
3
100
AcDbSymbolTableRecord
100
AcDbTextStyleTableRecord
  2
STANDARD
 70
     0
 40
0.0
 41
1.0
 50
0.0
 71
     0
 42
3.0
  3
SIMPLEX
  4

  0
STYLE
  5
1E
330
3
100
AcDbSymbolTableRecord
100
AcDbTextStyleTableRecord
  2
SIMPLEX
 70
     0
 40
3.0
 41
1.0
 50
0.0
 71
     0
 42
3.0
  3
simplex
  4

  0
STYLE
  5
1F
330
3
100
AcDbSymbolTableRecord
100
AcDbTextStyleTableRecord
  2
COMPLEX
 70
     0
 40
3.0
 41
1.0
 50
0.0
 71
     0
 42
3.0
  3
complex
  4

  0
STYLE
  5
109
330
3
100
AcDbSymbolTableRecord
100
AcDbTextStyleTableRecord
  2

 70
     1
 40
0.0
 41
1.0
 50
0.0
 71
     0
 42
3.0
  3
ltypeshp.shx
  4

  0
STYLE
  5
139
330
3
100
AcDbSymbolTableRecord
100
AcDbTextStyleTableRecord
  2
ITALICC
 70
     0
 40
3.0
 41
1.0
 50
15.0
 71
     0
 42
3.0
  3
ITALICC
  4

  0
ENDTAB
  0
TABLE
  2
VIEW
  5
6
330
0
100
AcDbSymbolTable
 70
     0
  0
ENDTAB
  0
TABLE
  2
UCS
  5
7
330
0
100
AcDbSymbolTable
 70
     0
  0
ENDTAB
  0
TABLE
  2
APPID
  5
9
330
0
100
AcDbSymbolTable
 70
     3
  0
APPID
  5
10
330
9
100
AcDbSymbolTableRecord
100
AcDbRegAppTableRecord
  2
ACAD
 70
     0
  0
APPID
  5
4A8
330
9
100
AcDbSymbolTableRecord
100
AcDbRegAppTableRecord
  2
ACAD_EXEMPT_FROM_CAD_STANDARDS
 70
     0
  0
APPID
  5
954
330
9
100
AcDbSymbolTableRecord
100
AcDbRegAppTableRecord
  2
ACAD_PSEXT
 70
     0
  0
ENDTAB
  0
TABLE
  2
DIMSTYLE
  5
A
330
0
100
AcDbSymbolTable
 70
     1
100
AcDbDimStyleTable
 71
     1
340
CB
  0
DIMSTYLE
105
CB
330
A
100
AcDbSymbolTableRecord
100
AcDbDimStyleTableRecord
  2
STANDARD
 70
     0
340
F
  0
ENDTAB
  0
TABLE
  2
BLOCK_RECORD
  5
1
330
0
100
AcDbSymbolTable
 70
     8
  0
BLOCK_RECORD
  5
17
102
{ACAD_XDICTIONARY
360
1E3
102
}
330
1
100
AcDbSymbolTableRecord
100
AcDbBlockTableRecord
  2
*MODEL_SPACE
340
D3
  0
BLOCK_RECORD
  5
14
330
1
100
AcDbSymbolTableRecord
100
AcDbBlockTableRecord
  2
*PAPER_SPACE
340
D4
  0
BLOCK_RECORD
  5
1C
330
1
100
AcDbSymbolTableRecord
100
AcDbBlockTableRecord
  2
PROJ
340
0
102
{BLKREFS
331
4C
102
}
  0
BLOCK_RECORD
  5
1D
330
1
100
AcDbSymbolTableRecord
100
AcDbBlockTableRecord
  2
LIMS
340
0
  0
BLOCK_RECORD
  5
119
330
1
100
AcDbSymbolTableRecord
100
AcDbBlockTableRecord
  2
thingy
340
0
  0
BLOCK_RECORD
  5
146
330
1
100
AcDbSymbolTableRecord
100
AcDbBlockTableRecord
  2
A$C507B7FE8
340
0
  0
BLOCK_RECORD
  5
6B6
330
1
100
AcDbSymbolTableRecord
100
AcDbBlockTableRecord
  2
*D4
340
0
  0
BLOCK_RECORD
  5
6C3
330
1
100
AcDbSymbolTableRecord
100
AcDbBlockTableRecord
  2
*D5
340
0
  0
BLOCK_RECORD
  5
6D0
330
1
100
AcDbSymbolTableRecord
100
AcDbBlockTableRecord
  2
*D6
340
0
  0
BLOCK_RECORD
  5
6DD
330
1
100
AcDbSymbolTableRecord
100
AcDbBlockTableRecord
  2
*D7
340
0
  0
ENDTAB
  0
ENDSEC
  0
SECTION
  2
BLOCKS
  0
BLOCK
  5
2B
330
17
100
AcDbEntity
  8
0
100
AcDbBlockBegin
  2
*MODEL_SPACE
 70
     0
 10
0.0
 20
0.0
 30
0.0
  3
*MODEL_SPACE
  1

  0
ENDBLK
  5
2C
330
17
100
AcDbEntity
  8
0
100
AcDbBlockEnd
  0
BLOCK
  5
29
330
14
100
AcDbEntity
 67
     1
  8
0
100
AcDbBlockBegin
  2
*PAPER_SPACE
 70
     0
 10
0.0
 20
0.0
 30
0.0
  3
*PAPER_SPACE
  1

  0
ENDBLK
  5
2A
330
14
100
AcDbEntity
 67
     1
  8
0
100
AcDbBlockEnd
  0
BLOCK
  5
2F
330
1C
100
AcDbEntity
  8
0
100
AcDbBlockBegin
  2
PROJ
 70
     0
 10
0.0
 20
0.0
 30
0.0
  3
PROJ
  1

  0
LINE
  5
30
330
1C
100
AcDbEntity
  8
CL
100
AcDbLine
 10
47.2547562526295
 20
-5.369046961082631
 30
0.0
 11
51.34912778718113
 21
-5.369046961082631
 31
0.0
  0
LINE
  5
31
330
1C
100
AcDbEntity
  8
CL
100
AcDbLine
 10
51.64111266167975
 20
-5.369046961082631
 30
0.0
 11
52.23078367631397
 21
-5.369046961082631
 31
0.0
  0
LINE
  5
32
330
1C
100
AcDbEntity
  8
CL
100
AcDbLine
 10
52.5227685508126
 20
-5.369046961082631
 30
0.0
 11
56.61714008536424
 21
-5.369046961082631
 31
0.0
  0
LINE
  5
33
330
1C
100
AcDbEntity
  8
CL
100
AcDbLine
 10
38.0535373502579
 20
-5.955867342898386
 30
0.0
 11
38.0535373502579
 21
-10.05023887744994
 31
0.0
  0
LINE
  5
34
330
1C
100
AcDbEntity
  8
CL
100
AcDbLine
 10
37.75870184294079
 20
-5.369046961082631
 30
0.0
 11
38.34837285757501
 21
-5.369046961082631
 31
0.0
  0
LINE
  5
35
330
1C
100
AcDbEntity
  8
CL
100
AcDbLine
 10
38.0535373502579
 20
-5.074211453765541
 30
0.0
 11
38.0535373502579
 21
-5.663882468399719
 31
0.0
  0
LINE
  5
36
330
1C
100
AcDbEntity
  8
CL
100
AcDbLine
 10
38.64035773207362
 20
-5.369046961082631
 30
0.0
 11
42.73472926662527
 21
-5.369046961082631
 31
0.0
  0
LINE
  5
37
330
1C
100
AcDbEntity
  8
CL
100
AcDbLine
 10
38.0535373502579
 20
-0.6878550447153203
 30
0.0
 11
38.0535373502579
 21
-4.782226579266874
 31
0.0
  0
LINE
  5
38
330
1C
100
AcDbEntity
  8
CL
100
AcDbLine
 10
33.37234543389054
 20
-5.369046961082631
 30
0.0
 11
37.46671696844217
 21
-5.369046961082631
 31
0.0
  0
CIRCLE
  5
39
330
1C
100
AcDbEntity
  8
TEX
100
AcDbCircle
 10
38.0535373502579
 20
-5.369046961082631
 30
0.0
 40
4.0
  0
CIRCLE
  5
3A
330
1C
100
AcDbEntity
  8
TEX
100
AcDbCircle
 10
38.0535373502579
 20
-5.369046961082631
 30
0.0
 40
2.0
  0
LINE
  5
3B
330
1C
100
AcDbEntity
  8
TEX
100
AcDbLine
 10
48.00640284369579
 20
-7.369046961082518
 30
0.0
 11
48.00640284369579
 21
-3.343735453992053
 31
0.0
  0
LINE
  5
3C
330
1C
100
AcDbEntity
  8
TEX
100
AcDbLine
 10
56.06899543334121
 20
-9.369046961082633
 30
0.0
 11
56.06899543334121
 21
-1.492022076080502
 31
0.0
  0
LINE
  5
3D
330
1C
100
AcDbEntity
  8
TEX
100
AcDbLine
 10
48.00640284369579
 20
-7.369046961082518
 30
0.0
 11
56.06899543334121
 21
-9.369046961082633
 31
0.0
  0
LINE
  5
3E
330
1C
100
AcDbEntity
  8
TEX
100
AcDbLine
 10
48.00640284369579
 20
-3.343735453992053
 30
0.0
 11
56.06899543334121
 21
-1.492022076080502
 31
0.0
  0
TEXT
  5
3F
330
1C
100
AcDbEntity
  8
TEX
100
AcDbText
 10
2.888889778631548
 20
-6.898189987468412
 30
0.0
 40
3.0
  1
PROJECTION
  7
COMPLEX
100
AcDbText
  0
LINE
  5
41
330
1C
100
AcDbEntity
  8
BORDER
100
AcDbLine
 10
58.86838520522085
 20
0.0
 30
0.0
 11
58.86838520522085
 21
-10.7901659353995
 31
0.0
  0
LINE
  5
42
330
1C
100
AcDbEntity
  8
BORDER
100
AcDbLine
 10
58.86838520522085
 20
-10.7901659353995
 30
0.0
 11
0.0000000000000018
 21
-10.7901659353995
 31
0.0
  0
ENDBLK
  5
43
330
1C
100
AcDbEntity
  8
0
100
AcDbBlockEnd
  0
BLOCK
  5
44
330
1D
100
AcDbEntity
  8
0
100
AcDbBlockBegin
  2
LIMS
 70
     2
 10
0.0
 20
0.0
 30
0.0
  3
LIMS
  1

  0
ATTDEF
  5
45
330
1D
100
AcDbEntity
  8
0
100
AcDbText
 10
79.49342504865509
 20
32.11443810754941
 30
0.0
 40
2.399999999999999
  1
X.    = %%P 1.0
100
AcDbAttributeDefinition
  3
Limits (0 DEC) :
  2
DEC01
 70
     0
  0
ATTDEF
  5
47
330
1D
100
AcDbEntity
  8
0
100
AcDbText
 10
79.49342504865509
 20
28.0001523932637
 30
0.0
 40
2.399999999999999
  1
X.X   = %%P 0.5
100
AcDbAttributeDefinition
  3
Limits (1 DEC) :
  2
DEC02
 70
     0
  0
ATTDEF
  5
48
330
1D
100
AcDbEntity
  8
0
100
AcDbText
 10
79.49342504865509
 20
23.88586667897799
 30
0.0
 40
2.399999999999999
  1
X.XX  = %%P 0.25
100
AcDbAttributeDefinition
  3
Limits (2 DEC) :
  2
DEC03
 70
     0
  0
ATTDEF
  5
49
330
1D
100
AcDbEntity
  8
0
100
AcDbText
 10
79.49342504865509
 20
19.77158096469228
 30
0.0
 40
2.399999999999999
  1
X.XXX = %%P 0.12
100
AcDbAttributeDefinition
  3
Limits (3 DEC) :
  2
DEC04
 70
     0
  0
ATTDEF
  5
4A
330
1D
100
AcDbEntity
  8
0
100
AcDbText
 10
130.0525608443425
 20
25.1951866867006
 30
0.0
 40
3.0
  1
%%P 1%%D
100
AcDbAttributeDefinition
  3
Limits (angular) :
  2
ANG01
 70
     0
  0
ENDBLK
  5
4B
330
1D
100
AcDbEntity
  8
0
100
AcDbBlockEnd
  0
BLOCK
  5
11D
330
119
100
AcDbEntity
  8
0
100
AcDbBlockBegin
  2
thingy
 70
     0
 10
0.0
 20
0.0
 30
0.0
  3
thingy
  1

  0
TEXT
  5
11A
330
119
100
AcDbEntity
  8
DIM34
100
AcDbText
 10
3.887704180664172
 20
4.008459698531169
 30
0.0
 40
4.0
  1
Isopad House, Shenley Road, Borehamwood, Herts WD6 1TE
100
AcDbText
  0
TEXT
  5
11B
330
119
100
AcDbEntity
  8
DIM34
 62
     3
100
AcDbText
 10
3.140009881608078
 20
12.6624032453733
 30
0.0
 40
5.0
  1
Safety 1st Europe
 11
3.140009881608078
 21
17.6624032453733
 31
0.0
100
AcDbText
 73
     3
  0
TEXT
  5
11C
330
119
100
AcDbEntity
  8
DIM34
100
AcDbText
 10
79.51265465995231
 20
12.91945439185406
 30
0.0
 40
3.0
  1
TEL +44(0)20 8236 0707 fAX +44(0)20 8236 0770
100
AcDbText
  0
ENDBLK
  5
11E
330
119
100
AcDbEntity
  8
0
100
AcDbBlockEnd
  0
BLOCK
  5
155
330
146
100
AcDbEntity
  8
0
100
AcDbBlockBegin
  2
A$C507B7FE8
 70
     0
 10
0.0
 20
0.0
 30
0.0
  3
A$C507B7FE8
  1

  0
LINE
  5
147
330
146
100
AcDbEntity
  8
BOR715
 62
    15
100
AcDbLine
 10
0.000268786193601
 20
41.22128114004829
 30
0.0
 11
155.9658687861931
 21
41.22128114004829
 31
0.0
  0
TEXT
  5
148
330
146
100
AcDbEntity
  8
TXT34
 62
     3
100
AcDbText
 10
117.1992147528627
 20
36.9251889848706
 30
0.0
 40
3.0
  1
SHT
100
AcDbText
  0
TEXT
  5
149
330
146
100
AcDbEntity
  8
TXT34
 62
     3
100
AcDbText
 10
133.1635578541245
 20
37.00384869192715
 30
0.0
 40
3.0
  1
OF  SHTS
100
AcDbText
  0
TEXT
  5
14A
330
146
100
AcDbEntity
  8
TXT34
 62
     3
100
AcDbText
 10
126.3313345885509
 20
21.31487766178634
 30
0.0
 40
2.5
  1
C.A.D. file ref
100
AcDbText
  0
TEXT
  5
14B
330
146
100
AcDbEntity
  8
TXT34
 62
     3
100
AcDbText
 10
96.51057997072101
 20
8.956650329520241
 30
0.0
 40
3.5
  1
SCALE
100
AcDbText
  0
TEXT
  5
14C
330
146
100
AcDbEntity
  8
TXT34
 62
     3
100
AcDbText
 10
96.37457141806521
 20
-0.0000205094302146
 30
0.0
 40
3.5
  1
DRAWN
100
AcDbText
  0
LINE
  5
14D
330
146
100
AcDbEntity
  8
BOR715
 62
    15
100
AcDbLine
 10
124.0951116150784
 20
15.36198956477813
 30
0.0
 11
124.0951116150784
 21
25.77274176338335
 31
0.0
  0
LINE
  5
14E
330
146
100
AcDbEntity
  8
BOR715
 62
    15
100
AcDbLine
 10
0.000268786193601
 20
25.77274176338335
 30
0.0
 11
155.9658687861931
 21
25.77274176338335
 31
0.0
  0
LINE
  5
14F
330
146
100
AcDbEntity
  8
BOR715
 62
    15
100
AcDbLine
 10
0.000268786193601
 20
15.36198956477813
 30
0.0
 11
155.9658687861931
 21
15.36198956477813
 31
0.0
  0
LINE
  5
150
330
146
100
AcDbEntity
  8
BOR715
 62
    15
100
AcDbLine
 10
0.000268786193601
 20
7.579364199718042
 30
0.0
 11
155.9658687861931
 21
7.579364199718042
 31
0.0
  0
TEXT
  5
151
330
146
100
AcDbEntity
  8
TXT34
 62
     3
100
AcDbText
 10
1.722268786193352
 20
0.9781497552065728
 30
0.0
 40
3.5
  1
FINISH
100
AcDbText
  0
TEXT
  5
152
330
146
100
AcDbEntity
  8
TXT34
 62
     3
100
AcDbText
 10
1.841906183829563
 20
8.942378738824686
 30
0.0
 40
3.5
  1
MAT'L.
100
AcDbText
  0
TEXT
  5
153
330
146
100
AcDbEntity
  8
TXT34
 62
     3
100
AcDbText
 10
1.10846905158064
 20
17.93741218972343
 30
0.0
 40
3.5
  1
DWG No.
100
AcDbText
  0
TEXT
  5
154
330
146
100
AcDbEntity
  8
TXT34
 62
     3
100
AcDbText
 10
1.283166805179688
 20
36.16923725778236
 30
0.0
 40
3.5
  1
TITLE
100
AcDbText
  0
ENDBLK
  5
156
330
146
100
AcDbEntity
  8
0
100
AcDbBlockEnd
  0
BLOCK
  5
6C0
330
6B6
100
AcDbEntity
  8
0
100
AcDbBlockBegin
  2
*D4
 70
     1
 10
0.0
 20
0.0
 30
0.0
  3
*D4
  1

  0
LINE
  5
8E1
330
6B6
100
AcDbEntity
  8
DIM34
 62
     0
370
    -2
100
AcDbLine
 10
648.4867475240758
 20
730.9818488252566
 30
0.0
 11
636.7136255754631
 21
730.9818488252566
 31
0.0
  0
LINE
  5
8E2
330
6B6
100
AcDbEntity
  8
DIM34
 62
     0
370
    -2
100
AcDbLine
 10
648.4867475240758
 20
740.2121880017999
 30
0.0
 11
636.7136255754631
 21
740.2121880017999
 31
0.0
  0
LINE
  5
8E3
330
6B6
100
AcDbEntity
  8
DIM34
 62
     0
370
    -2
100
AcDbLine
 10
639.213625575463
 20
733.9818488252566
 30
0.0
 11
639.213625575463
 21
737.2121880017999
 31
0.0
  0
MTEXT
  5
8E4
330
6B6
100
AcDbEntity
  8
DIM34
 62
     0
100
AcDbMText
 10
631.9636255754629
 20
735.5970184135284
 30
0.0
 40
5.0
 41
0.0
 71
     5
 72
     1
  1
\A1;9.23
 11
0.0000000000000001
 21
1.0
 31
0.0
 73
     1
 44
1.0
  0
SOLID
  5
8E5
330
6B6
100
AcDbEntity
  8
DIM34
 62
     0
100
AcDbTrace
 10
638.713625575463
 20
733.9818488252566
 30
0.0
 11
639.7136255754631
 21
733.9818488252566
 31
0.0
 12
639.213625575463
 22
730.9818488252566
 32
0.0
 13
639.213625575463
 23
730.9818488252566
 33
0.0
  0
SOLID
  5
8E6
330
6B6
100
AcDbEntity
  8
DIM34
 62
     0
100
AcDbTrace
 10
638.713625575463
 20
737.2121880017999
 30
0.0
 11
639.7136255754631
 21
737.2121880017999
 31
0.0
 12
639.213625575463
 22
740.2121880017999
 32
0.0
 13
639.213625575463
 23
740.2121880017999
 33
0.0
  0
POINT
  5
8E7
330
6B6
100
AcDbEntity
  8
Defpoints
 62
     0
100
AcDbPoint
 10
650.9867475240757
 20
730.9818488252566
 30
0.0
  0
POINT
  5
8E8
330
6B6
100
AcDbEntity
  8
Defpoints
 62
     0
100
AcDbPoint
 10
650.9867475240757
 20
740.2121880017999
 30
0.0
  0
POINT
  5
8E9
330
6B6
100
AcDbEntity
  8
Defpoints
 62
     0
100
AcDbPoint
 10
639.213625575463
 20
740.2121880017999
 30
0.0
  0
ENDBLK
  5
6C1
330
6B6
100
AcDbEntity
  8
0
100
AcDbBlockEnd
  0
BLOCK
  5
6CD
330
6C3
100
AcDbEntity
  8
0
100
AcDbBlockBegin
  2
*D5
 70
     1
 10
0.0
 20
0.0
 30
0.0
  3
*D5
  1

  0
LINE
  5
8EA
330
6C3
100
AcDbEntity
  8
DIM34
 62
     0
370
    -2
100
AcDbLine
 10
780.4867475240757
 20
721.751509648713
 30
0.0
 11
766.7952280125851
 21
721.7515096487131
 31
0.0
  0
LINE
  5
8EB
330
6C3
100
AcDbEntity
  8
DIM34
 62
     0
370
    -2
100
AcDbLine
 10
780.4867475240757
 20
740.2121880017999
 30
0.0
 11
766.7952280125851
 21
740.2121880018
 31
0.0
  0
LINE
  5
8EC
330
6C3
100
AcDbEntity
  8
DIM34
 62
     0
370
    -2
100
AcDbLine
 10
769.2952280125852
 20
724.7515096487131
 30
0.0
 11
769.2952280125852
 21
737.2121880017999
 31
0.0
  0
MTEXT
  5
8ED
330
6C3
100
AcDbEntity
  8
DIM34
 62
     0
100
AcDbMText
 10
762.0452280125848
 20
730.9818488252568
 30
0.0
 40
5.0
 41
0.0
 71
     5
 72
     1
  1
\A1;18.46
 11
0.0000000000000001
 21
1.0
 31
0.0
 73
     1
 44
1.0
  0
SOLID
  5
8EE
330
6C3
100
AcDbEntity
  8
DIM34
 62
     0
100
AcDbTrace
 10
768.7952280125849
 20
724.7515096487131
 30
0.0
 11
769.7952280125852
 21
724.7515096487131
 31
0.0
 12
769.2952280125852
 22
721.751509648713
 32
0.0
 13
769.2952280125852
 23
721.751509648713
 33
0.0
  0
SOLID
  5
8EF
330
6C3
100
AcDbEntity
  8
DIM34
 62
     0
100
AcDbTrace
 10
768.7952280125849
 20
737.2121880017999
 30
0.0
 11
769.7952280125852
 21
737.2121880017999
 31
0.0
 12
769.2952280125852
 22
740.2121880017999
 32
0.0
 13
769.2952280125852
 23
740.2121880017999
 33
0.0
  0
POINT
  5
8F0
330
6C3
100
AcDbEntity
  8
Defpoints
 62
     0
100
AcDbPoint
 10
782.9867475240757
 20
721.751509648713
 30
0.0
  0
POINT
  5
8F1
330
6C3
100
AcDbEntity
  8
Defpoints
 62
     0
100
AcDbPoint
 10
782.9867475240757
 20
740.2121880017999
 30
0.0
  0
POINT
  5
8F2
330
6C3
100
AcDbEntity
  8
Defpoints
 62
     0
100
AcDbPoint
 10
769.2952280125852
 20
740.2121880017999
 30
0.0
  0
ENDBLK
  5
6CE
330
6C3
100
AcDbEntity
  8
0
100
AcDbBlockEnd
  0
BLOCK
  5
6DA
330
6D0
100
AcDbEntity
  8
0
100
AcDbBlockBegin
  2
*D6
 70
     1
 10
0.0
 20
0.0
 30
0.0
  3
*D6
  1

  0
LINE
  5
8F3
330
6D0
100
AcDbEntity
  8
DIM34
 62
     0
370
    -2
100
AcDbLine
 10
912.4867475240758
 20
712.5211704721698
 30
0.0
 11
898.9093553250778
 21
712.5211704721698
 31
0.0
  0
LINE
  5
8F4
330
6D0
100
AcDbEntity
  8
DIM34
 62
     0
370
    -2
100
AcDbLine
 10
912.4867475240758
 20
740.2121880017999
 30
0.0
 11
898.9093553250778
 21
740.2121880017999
 31
0.0
  0
LINE
  5
8F5
330
6D0
100
AcDbEntity
  8
DIM34
 62
     0
370
    -2
100
AcDbLine
 10
901.4093553250775
 20
715.5211704721698
 30
0.0
 11
901.4093553250775
 21
737.2121880017999
 31
0.0
  0
SOLID
  5
8F6
330
6D0
100
AcDbEntity
  8
DIM34
 62
     0
100
AcDbTrace
 10
900.9093553250776
 20
715.5211704721698
 30
0.0
 11
901.9093553250778
 21
715.5211704721698
 31
0.0
 12
901.4093553250775
 22
712.5211704721698
 32
0.0
 13
901.4093553250775
 23
712.5211704721698
 33
0.0
  0
SOLID
  5
8F7
330
6D0
100
AcDbEntity
  8
DIM34
 62
     0
100
AcDbTrace
 10
900.9093553250776
 20
737.2121880017999
 30
0.0
 11
901.9093553250778
 21
737.2121880017999
 31
0.0
 12
901.4093553250775
 22
740.2121880017999
 32
0.0
 13
901.4093553250775
 23
740.2121880017999
 33
0.0
  0
MTEXT
  5
8F8
330
6D0
100
AcDbEntity
  8
DIM34
 62
     0
100
AcDbMText
 10
897.4093553250776
 20
726.3666792369853
 30
0.0
 40
5.0
 41
0.0
 71
     5
 72
     1
  1
\A1;27.69
 11
0.0000000000000001
 21
1.0
 31
0.0
 73
     1
 44
1.0
  0
POINT
  5
8F9
330
6D0
100
AcDbEntity
  8
Defpoints
 62
     0
100
AcDbPoint
 10
914.9867475240757
 20
712.5211704721698
 30
0.0
  0
POINT
  5
8FA
330
6D0
100
AcDbEntity
  8
Defpoints
 62
     0
100
AcDbPoint
 10
914.9867475240757
 20
740.2121880017999
 30
0.0
  0
POINT
  5
8FB
330
6D0
100
AcDbEntity
  8
Defpoints
 62
     0
100
AcDbPoint
 10
901.4093553250775
 20
740.2121880017999
 30
0.0
  0
ENDBLK
  5
6DB
330
6D0
100
AcDbEntity
  8
0
100
AcDbBlockEnd
  0
BLOCK
  5
6E7
330
6DD
100
AcDbEntity
  8
0
100
AcDbBlockBegin
  2
*D7
 70
     1
 10
0.0
 20
0.0
 30
0.0
  3
*D7
  1

  0
LINE
  5
8FC
330
6DD
100
AcDbEntity
  8
DIM34
 62
     0
370
    -2
100
AcDbLine
 10
1044.486747524075
 20
703.2908312956264
 30
0.0
 11
1025.603417460292
 21
703.2908312956264
 31
0.0
  0
LINE
  5
8FD
330
6DD
100
AcDbEntity
  8
DIM34
 62
     0
370
    -2
100
AcDbLine
 10
1044.486747524075
 20
740.2121880017999
 30
0.0
 11
1025.603417460292
 21
740.2121880017999
 31
0.0
  0
LINE
  5
8FE
330
6DD
100
AcDbEntity
  8
DIM34
 62
     0
370
    -2
100
AcDbLine
 10
1028.103417460292
 20
706.2908312956262
 30
0.0
 11
1028.103417460292
 21
737.2121880017999
 31
0.0
  0
SOLID
  5
8FF
330
6DD
100
AcDbEntity
  8
DIM34
 62
     0
100
AcDbTrace
 10
1027.603417460292
 20
706.2908312956262
 30
0.0
 11
1028.603417460292
 21
706.2908312956262
 31
0.0
 12
1028.103417460292
 22
703.2908312956264
 32
0.0
 13
1028.103417460292
 23
703.2908312956264
 33
0.0
  0
SOLID
  5
900
330
6DD
100
AcDbEntity
  8
DIM34
 62
     0
100
AcDbTrace
 10
1027.603417460292
 20
737.2121880017999
 30
0.0
 11
1028.603417460292
 21
737.2121880017999
 31
0.0
 12
1028.103417460292
 22
740.2121880017999
 32
0.0
 13
1028.103417460292
 23
740.2121880017999
 33
0.0
  0
MTEXT
  5
901
330
6DD
100
AcDbEntity
  8
DIM34
 62
     0
100
AcDbMText
 10
1024.103417460292
 20
721.7515096487131
 30
0.0
 40
5.0
 41
0.0
 71
     5
 72
     1
  1
\A1;36.92
 11
0.0000000000000001
 21
1.0
 31
0.0
 73
     1
 44
1.0
  0
POINT
  5
902
330
6DD
100
AcDbEntity
  8
Defpoints
 62
     0
100
AcDbPoint
 10
1046.986747524075
 20
703.2908312956264
 30
0.0
  0
POINT
  5
903
330
6DD
100
AcDbEntity
  8
Defpoints
 62
     0
100
AcDbPoint
 10
1046.986747524075
 20
740.2121880017999
 30
0.0
  0
POINT
  5
904
330
6DD
100
AcDbEntity
  8
Defpoints
 62
     0
100
AcDbPoint
 10
1028.103417460292
 20
740.2121880017999
 30
0.0
  0
ENDBLK
  5
6E8
330
6DD
100
AcDbEntity
  8
0
100
AcDbBlockEnd
  0
ENDSEC
  0
SECTION
  2
ENTITIES
  0
INSERT
  5
4C
330
17
100
AcDbEntity
  8
0
100
AcDbBlockReference
  2
PROJ
 10
10.0
 20
831.0
 30
0.0
  0
LINE
  5
4D
330
17
100
AcDbEntity
  8
BOR
100
AcDbLine
 10
10.0
 20
10.0
 30
0.0
 11
1179.0
 21
10.0
 31
0.0
  0
LINE
  5
4E
330
17
100
AcDbEntity
  8
BOR
100
AcDbLine
 10
10.0
 20
831.0
 30
0.0
 11
10.0
 21
10.0
 31
0.0
  0
LINE
  5
4F
330
17
100
AcDbEntity
  8
BOR
100
AcDbLine
 10
1179.0
 20
831.0
 30
0.0
 11
1179.0
 21
10.0
 31
0.0
  0
LINE
  5
50
330
17
100
AcDbEntity
  8
BOR
100
AcDbLine
 10
10.0
 20
831.0
 30
0.0
 11
1179.0
 21
831.0
 31
0.0
  0
LINE
  5
E6
330
17
100
AcDbEntity
  8
BOR
100
AcDbLine
 10
0.0
 20
840.9999999999996
 30
0.0
 11
0.0
 21
0.0
 31
0.0
  0
LINE
  5
E7
330
17
100
AcDbEntity
  8
BOR
100
AcDbLine
 10
0.0
 20
840.9999999999996
 30
0.0
 11
1189.0
 21
841.0
 31
0.0
  0
LINE
  5
EA
330
17
100
AcDbEntity
  8
BOR
100
AcDbLine
 10
1189.0
 20
841.0000000000001
 30
0.0
 11
1189.0
 21
0.0
 31
0.0
  0
LINE
  5
EB
330
17
100
AcDbEntity
  8
BOR
100
AcDbLine
 10
0.0
 20
0.0
 30
0.0
 11
1189.0
 21
0.0
 31
0.0
  0
LINE
  5
197
330
17
100
AcDbEntity
  8
BOR715
 62
    15
100
AcDbLine
 10
860.1872965920268
 20
16.4308093107179
 30
0.0
 11
1023.0344
 21
16.4308093107179
 31
0.0
  0
TEXT
  5
198
330
17
100
AcDbEntity
  8
TXT34
 62
     3
100
AcDbText
 10
1024.142600265387
 20
28.90635586533858
 30
0.0
 40
3.5
  1
DWG No.
100
AcDbText
  0
TEXT
  5
199
330
17
100
AcDbEntity
  8
TXT34
 62
     3
100
AcDbText
 10
1024.317298018986
 20
47.13818093339749
 30
0.0
 40
3.5
  1
TITLE
100
AcDbText
  0
TEXT
  5
19A
330
17
100
AcDbEntity
  8
TXT34
 62
     3
100
AcDbText
 10
1119.544711184528
 20
19.92559400513539
 30
0.0
 40
3.5
  1
SCALE
100
AcDbText
  0
TEXT
  5
19B
330
17
100
AcDbEntity
  8
TXT34
 62
     3
100
AcDbText
 10
1024.876037397635
 20
19.91132241443984
 30
0.0
 40
3.5
  1
MAT'L.
100
AcDbText
  0
LINE
  5
19C
330
17
100
AcDbEntity
  8
BOR715
 62
    15
100
AcDbLine
 10
1147.129242828885
 20
26.33093324039328
 30
0.0
 11
1147.129242828885
 21
36.7416854389985
 31
0.0
  0
LINE
  5
19D
330
17
100
AcDbEntity
  8
BOR715
 62
    15
100
AcDbLine
 10
731.1083907262876
 20
22.45353031495324
 30
0.0
 11
1023.0344
 21
22.45353031495324
 31
0.0
  0
TEXT
  5
19E
330
17
100
AcDbEntity
  8
TXT34
 62
     3
100
AcDbText
 10
733.7792610357287
 20
25.10064581713687
 30
0.0
 40
3.0
  1
INITIALLY USED ON
100
AcDbText
  0
TEXT
  5
19F
330
17
100
AcDbEntity
  8
TXT34
 62
     3
100
AcDbText
 10
1041.494688866852
 20
59.09370969284855
 30
0.0
 40
3.0
  1
THE BOAT YARD
 51
15.0
  7
ITALICC
100
AcDbText
  0
TEXT
  5
1A0
330
17
100
AcDbEntity
  8
TXT34
 62
     3
100
AcDbText
 10
1041.013421764002
 20
53.83245814111035
 30
0.0
 40
2.799999999999998
  1
26 THE LEYS, LONG BUCKBY, NORTHAMPTON, NN6 7YD
100
AcDbText
  0
TEXT
  5
1A1
330
17
100
AcDbEntity
  8
TXT34
 62
     3
100
AcDbText
 10
1087.636612241026
 20
59.26846689433887
 30
0.0
 40
2.799999999999998
  1
TEL/FAX 01327 843932
100
AcDbText
  0
TEXT
  5
1A2
330
17
100
AcDbEntity
  8
TXT34
 62
     3
100
AcDbText
 10
1140.233345966669
 20
47.89413266048575
 30
0.0
 40
3.0
  1
SHT
100
AcDbText
  0
LINE
  5
1A3
330
17
100
AcDbEntity
  8
BOR715
 62
    15
100
AcDbLine
 10
860.1872965920268
 20
28.47625131918858
 30
0.0
 11
861.1872965920268
 21
28.47625131918858
 31
0.0
  0
LINE
  5
1A4
330
17
100
AcDbEntity
  8
BOR715
 62
    15
100
AcDbLine
 10
860.1872965920268
 20
34.49897232342391
 30
0.0
 11
861.1872965920268
 21
34.49897232342391
 31
0.0
  0
LINE
  5
1A5
330
17
100
AcDbEntity
  8
BOR715
 62
    15
100
AcDbLine
 10
860.1872965920268
 20
40.52169332765925
 30
0.0
 11
861.1872965920268
 21
40.52169332765925
 31
0.0
  0
LINE
  5
1A6
330
17
100
AcDbEntity
  8
BOR715
 62
    15
100
AcDbLine
 10
860.1872965920268
 20
46.54441433189457
 30
0.0
 11
861.1872965920268
 21
46.54441433189457
 31
0.0
  0
LINE
  5
1A7
330
17
100
AcDbEntity
  8
BOR715
 62
    15
100
AcDbLine
 10
860.1872965920268
 20
52.56713533612992
 30
0.0
 11
861.1872965920268
 21
52.56713533612992
 31
0.0
  0
LINE
  5
1A8
330
17
100
AcDbEntity
  8
BOR715
 62
    15
100
AcDbLine
 10
860.1872965920268
 20
58.5898563403652
 30
0.0
 11
861.1872965920268
 21
58.5898563403652
 31
0.0
  0
LINE
  5
1A9
330
17
100
AcDbEntity
  8
BOR715
 62
    15
100
AcDbLine
 10
1022.0344
 20
58.5898563403652
 30
0.0
 11
1023.0344
 21
58.5898563403652
 31
0.0
  0
LINE
  5
1AA
330
17
100
AcDbEntity
  8
BOR715
 62
    15
100
AcDbLine
 10
1022.0344
 20
52.56713533612992
 30
0.0
 11
1023.0344
 21
52.56713533612992
 31
0.0
  0
LINE
  5
1AB
330
17
100
AcDbEntity
  8
BOR715
 62
    15
100
AcDbLine
 10
1022.0344
 20
46.54441433189457
 30
0.0
 11
1023.0344
 21
46.54441433189457
 31
0.0
  0
LINE
  5
1AC
330
17
100
AcDbEntity
  8
BOR715
 62
    15
100
AcDbLine
 10
1022.0344
 20
40.52169332765925
 30
0.0
 11
1023.0344
 21
40.52169332765925
 31
0.0
  0
LINE
  5
1AD
330
17
100
AcDbEntity
  8
BOR715
 62
    15
100
AcDbLine
 10
1022.0344
 20
34.49897232342391
 30
0.0
 11
1023.0344
 21
34.49897232342391
 31
0.0
  0
LINE
  5
1AE
330
17
100
AcDbEntity
  8
BOR715
 62
    15
100
AcDbLine
 10
1022.0344
 20
28.47625131918858
 30
0.0
 11
1023.0344
 21
28.47625131918858
 31
0.0
  0
TEXT
  5
1AF
330
17
100
AcDbEntity
  8
TXT34
 62
     3
100
AcDbText
 10
846.120100607913
 20
51.62340654675428
 30
0.0
 40
3.499999799999999
  1
0.50
100
AcDbText
  0
TEXT
  5
1B0
330
17
100
AcDbEntity
  8
TXT34
 62
     3
100
AcDbText
 10
846.120100607913
 20
45.79007354675423
 30
0.0
 40
3.499999799999999
  1
0.25
100
AcDbText
  0
TEXT
  5
1B1
330
17
100
AcDbEntity
  8
TXT34
 62
     3
100
AcDbText
 10
846.120100607913
 20
39.95674054675419
 30
0.0
 40
3.499999799999999
  1
0.15
100
AcDbText
  0
TEXT
  5
1B2
330
17
100
AcDbEntity
  8
TXT34
 62
     3
100
AcDbText
 10
838.6640961204006
 20
39.95674054675419
 30
0.0
 40
3.499999799999999
  1
%%p
100
AcDbText
  0
TEXT
  5
1B3
330
17
100
AcDbEntity
  8
TXT34
 62
     3
100
AcDbText
 10
838.6640961204006
 20
45.79007354675423
 30
0.0
 40
3.499999799999999
  1
%%p
100
AcDbText
  0
TEXT
  5
1B4
330
17
100
AcDbEntity
  8
TXT34
 62
     3
100
AcDbText
 10
838.6640961204006
 20
51.62340654675428
 30
0.0
 40
3.499999799999999
  1
%%p
100
AcDbText
  0
TEXT
  5
1B5
330
17
100
AcDbEntity
  8
TXT34
 62
     3
100
AcDbText
 10
724.1317451991744
 20
57.45673954675424
 30
0.0
 40
3.499999799999999
  1
%%uTOLERANCES.
100
AcDbText
  0
TEXT
  5
1B6
330
17
100
AcDbEntity
  8
TXT34
 62
     3
100
AcDbText
 10
724.1317451991744
 20
51.62340654675428
 30
0.0
 40
3.499999799999999
  1
Dimensions with one decimal place -
100
AcDbText
  0
TEXT
  5
1B7
330
17
100
AcDbEntity
  8
TXT34
 62
     3
100
AcDbText
 10
724.1317451991744
 20
45.79007354675423
 30
0.0
 40
3.499999799999999
  1
Dimensions with two decimal places -
100
AcDbText
  0
TEXT
  5
1B8
330
17
100
AcDbEntity
  8
TXT34
 62
     3
100
AcDbText
 10
724.1317451991744
 20
39.95674054675419
 30
0.0
 40
3.499999799999999
  1
Dimensions with three decimal places -
100
AcDbText
  0
TEXT
  5
1B9
330
17
100
AcDbEntity
  8
TXT34
 62
     3
100
AcDbText
 10
724.1195608346742
 20
32.93037713763875
 30
0.0
 40
3.5
  1
THIRD ANGLE PROJECTION. DIMS., IN mm
100
AcDbText
  0
LINE
  5
1BB
330
17
100
AcDbEntity
  8
BOR715
 62
    15
100
AcDbLine
 10
860.1872965920268
 20
30.45353031495324
 30
0.0
 11
860.1872965920268
 21
10.0
 31
0.0
  0
LINE
  5
1BC
330
17
100
AcDbEntity
  8
BOR715
 62
    15
100
AcDbLine
 10
1023.0344
 20
36.7416854389985
 30
0.0
 11
1179.0
 21
36.7416854389985
 31
0.0
  0
LINE
  5
1BD
330
17
100
AcDbEntity
  8
BOR715
 62
    15
100
AcDbLine
 10
1023.0344
 20
52.19022481566343
 30
0.0
 11
1179.0
 21
52.19022481566343
 31
0.0
  0
LINE
  5
1BE
330
17
100
AcDbEntity
  8
BOR715
 62
    15
100
AcDbLine
 10
1023.0344
 20
10.0
 30
0.0
 11
1023.0344
 21
63.97262481566297
 31
0.0
  0
LINE
  5
1BF
330
17
100
AcDbEntity
  8
BOR715
 62
    15
100
AcDbLine
 10
868.8456015596939
 20
10.0
 30
0.0
 11
868.8456015596939
 21
63.97262481566297
 31
0.0
  0
LINE
  5
1C0
330
17
100
AcDbEntity
  8
BOR715
 62
    15
100
AcDbLine
 10
998.7299744136123
 20
10.0
 30
0.0
 11
998.7299744136123
 21
63.97262481566297
 31
0.0
  0
LINE
  5
1C1
330
17
100
AcDbEntity
  8
BOR715
 62
    15
100
AcDbLine
 10
973.4408921758397
 20
10.0
 30
0.0
 11
973.4408921758397
 21
63.97262481566297
 31
0.0
  0
LINE
  5
1C2
330
17
100
AcDbEntity
  8
BOR715
 62
    15
100
AcDbLine
 10
1010.882187206806
 20
63.97262481566297
 30
0.0
 11
1010.882187206806
 21
10.0
 31
0.0
  0
LWPOLYLINE
  5
1C3
330
17
100
AcDbEntity
  8
BOR715
 62
    15
100
AcDbPolyline
 90
        6
 70
     0
 43
0.0
 10
731.1083907262876
 20
10.0
 10
731.1083907262876
 20
30.45353031495324
 10
860.1872965920268
 20
30.45353031495324
 10
860.1872965920268
 20
63.97262481566297
 10
1023.0344
 20
63.97262481566297
 10
1179.0
 20
63.97262481566297
  0
LINE
  5
1C4
330
17
100
AcDbEntity
  8
BOR715
 62
    15
100
AcDbLine
 10
1023.0344
 20
26.33093324039328
 30
0.0
 11
1179.0
 21
26.33093324039328
 31
0.0
  0
LINE
  5
1C5
330
17
100
AcDbEntity
  8
BOR715
 62
    15
100
AcDbLine
 10
1023.0344
 20
18.54830787533319
 30
0.0
 11
1179.0
 21
18.54830787533319
 31
0.0
  0
TEXT
  5
1C6
330
17
100
AcDbEntity
  8
TXT34
 62
     3
100
AcDbText
 10
795.5088755053004
 20
14.49396631079355
 30
0.0
 40
3.5
  1
THE BOAT YARD
100
AcDbText
  0
TEXT
  5
1C7
330
17
100
AcDbEntity
  8
TXT34
 62
     3
100
AcDbText
 10
736.0251593212098
 20
14.22572055771491
 30
0.0
 40
4.199999999999998
  1
C
 72
     1
 11
737.5251593212099
 21
14.22572055771491
 31
0.0
100
AcDbText
  0
CIRCLE
  5
1C8
330
17
100
AcDbEntity
  8
TXT34
 62
     3
100
AcDbCircle
 10
737.48424723007
 20
16.36455166405824
 30
0.0
 40
2.986160879098066
  0
TEXT
  5
1C9
330
17
100
AcDbEntity
  8
TXT34
 62
     3
100
AcDbText
 10
861.3199912500716
 20
11.86733803826928
 30
0.0
 40
2.799999999999998
  1
ISS
100
AcDbText
  0
TEXT
  5
1CA
330
17
100
AcDbEntity
  8
TXT34
 62
     3
100
AcDbText
 10
903.989329173436
 20
11.86733803826928
 30
0.0
 40
2.799999999999998
  1
CHANGE
100
AcDbText
  0
TEXT
  5
1CB
330
17
100
AcDbEntity
  8
TXT34
 62
     3
100
AcDbText
 10
982.1737992077142
 20
11.86733803826928
 30
0.0
 40
2.799999999999998
  1
DATE
100
AcDbText
  0
TEXT
  5
1CC
330
17
100
AcDbEntity
  8
TXT34
 62
     3
100
AcDbText
 10
999.2705127028889
 20
11.86733803826928
 30
0.0
 40
2.799999999999998
  1
NAME
 72
     2
 11
1010.070512702889
 21
11.86733803826928
 31
0.0
100
AcDbText
  0
TEXT
  5
1CD
330
17
100
AcDbEntity
  8
TXT34
 62
     3
100
AcDbText
 10
1010.889392162749
 20
11.86733803826928
 30
0.0
 40
2.799999999999998
  1
APR'L
 72
     2
 11
1022.222725496083
 21
11.86733803826928
 31
0.0
100
AcDbText
  0
TEXT
  5
1CE
330
17
100
AcDbEntity
  8
TXT34
 62
     3
100
AcDbText
 10
1024.7564
 20
11.94709343082172
 30
0.0
 40
3.5
  1
FINISH
100
AcDbText
  0
TEXT
  5
1CF
330
17
100
AcDbEntity
  8
TXT34
 62
     3
100
AcDbText
 10
1149.365465802357
 20
32.28382133740149
 30
0.0
 40
2.5
  1
C.A.D. file ref
100
AcDbText
  0
TEXT
  5
1D0
330
17
100
AcDbEntity
  8
TXT34
 62
     3
100
AcDbText
 10
1156.197689067931
 20
47.9727923675423
 30
0.0
 40
3.0
  1
OF  SHTS
100
AcDbText
  0
TEXT
  5
1D1
330
17
100
AcDbEntity
  8
TXT34
 62
     3
100
AcDbText
 10
1119.408702631872
 20
10.96892316618493
 30
0.0
 40
3.5
  1
DRAWN
100
AcDbText
  0
LINE
  5
1D2
330
17
100
AcDbEntity
  8
BOR715
 62
    15
100
AcDbLine
 10
1118.403758680419
 20
10.0
 30
0.0
 11
1118.403758680419
 21
26.33093324039328
 31
0.0
  0
LINE
  5
1E0
330
17
100
AcDbEntity
  8
CL
100
AcDbLine
 10
263.5750505879605
 20
729.061776752484
 30
0.0
 11
263.5750505879605
 21
685.0617767524838
 31
0.0
  0
LINE
  5
1E1
330
17
100
AcDbEntity
  8
OUT57
100
AcDbLine
 10
244.5750505879605
 20
724.0617767524838
 30
0.0
 11
282.5750505879605
 21
724.0617767524841
 31
0.0
  0
LINE
  5
1E5
330
17
100
AcDbEntity
  8
OUT57
100
AcDbLine
 10
244.5750505879605
 20
724.0617767524838
 30
0.0
 11
249.0750505879605
 21
696.061776752484
 31
0.0
  0
LINE
  5
1E6
330
17
100
AcDbEntity
  8
OUT57
100
AcDbLine
 10
282.5750505879605
 20
724.0617767524838
 30
0.0
 11
278.0750505879605
 21
696.0617767524836
 31
0.0
  0
LINE
  5
1E8
330
17
100
AcDbEntity
  8
OUT57
100
AcDbLine
 10
249.0750505879605
 20
696.061776752484
 30
0.0
 11
263.5750505879605
 21
690.0617767524838
 31
0.0
  0
LINE
  5
1E9
330
17
100
AcDbEntity
  8
OUT57
100
AcDbLine
 10
263.5750505879605
 20
690.0617767524838
 30
0.0
 11
278.0750505879605
 21
696.0617767524836
 31
0.0
  0
LINE
  5
1EA
330
17
100
AcDbEntity
  8
OUT57
100
AcDbLine
 10
200.1505273642969
 20
662.8662990761362
 30
0.0
 11
263.5750505879605
 21
662.8662990761362
 31
0.0
  0
LINE
  5
1F2
330
17
100
AcDbEntity
  8
OUT57
100
AcDbLine
 10
208.6505273642968
 20
619.3162990761362
 30
0.0
 11
263.5750505879605
 21
598.1262990761361
 31
0.0
  0
LINE
  5
1F5
330
17
100
AcDbEntity
  8
OUT57
100
AcDbLine
 10
180.5750505879605
 20
553.0505528573119
 30
0.0
 11
346.5750505879605
 21
553.0505528573119
 31
0.0
  0
LINE
  5
1FC
330
17
100
AcDbEntity
  8
OUT57
100
AcDbLine
 10
180.5750505879605
 20
553.0505528573119
 30
0.0
 11
189.5750505879605
 21
498.7305528573118
 31
0.0
  0
LINE
  5
1FD
330
17
100
AcDbEntity
  8
OUT57
100
AcDbLine
 10
189.5750505879605
 20
498.7305528573118
 30
0.0
 11
263.5750505879605
 21
473.8305528573118
 31
0.0
  0
LINE
  5
1FE
330
17
100
AcDbEntity
  8
OUT57
100
AcDbLine
 10
263.5750505879605
 20
473.8305528573118
 30
0.0
 11
337.8450505879605
 21
498.7305528573118
 31
0.0
  0
LINE
  5
1FF
330
17
100
AcDbEntity
  8
OUT57
100
AcDbLine
 10
337.8450505879605
 20
498.7305528573118
 30
0.0
 11
346.5750505879605
 21
553.0505528573119
 31
0.0
  0
LINE
  5
200
330
17
100
AcDbEntity
  8
OUT57
100
AcDbLine
 10
207.5750505879605
 20
403.3818000680683
 30
0.0
 11
319.5750505879605
 21
403.3818000680683
 31
0.0
  0
LINE
  5
207
330
17
100
AcDbEntity
  8
OUT57
100
AcDbLine
 10
207.5750505879605
 20
403.3818000680683
 30
0.0
 11
216.0750505879605
 21
344.4118000680683
 31
0.0
  0
LINE
  5
208
330
17
100
AcDbEntity
  8
OUT57
100
AcDbLine
 10
216.0750505879605
 20
344.4118000680683
 30
0.0
 11
263.5750505879605
 21
328.4618000680683
 31
0.0
  0
LINE
  5
209
330
17
100
AcDbEntity
  8
OUT57
100
AcDbLine
 10
263.5750505879605
 20
328.4618000680683
 30
0.0
 11
311.0750505879605
 21
344.4118000680683
 31
0.0
  0
LINE
  5
20A
330
17
100
AcDbEntity
  8
OUT57
100
AcDbLine
 10
311.0750505879605
 20
344.4118000680683
 30
0.0
 11
319.5750505879605
 21
403.3818000680683
 31
0.0
  0
LINE
  5
20D
330
17
100
AcDbEntity
  8
OUT57
100
AcDbLine
 10
253.0750505879605
 20
286.744699478149
 30
0.0
 11
274.0750505879605
 21
286.744699478149
 31
0.0
  0
LINE
  5
214
330
17
100
AcDbEntity
  8
OUT57
100
AcDbLine
 10
253.0750505879605
 20
286.744699478149
 30
0.0
 11
259.5750505879605
 21
227.5846994781491
 31
0.0
  0
LINE
  5
215
330
17
100
AcDbEntity
  8
OUT57
100
AcDbLine
 10
259.5750505879605
 20
227.584699478149
 30
0.0
 11
263.5750505879606
 21
221.584699478149
 31
0.0
  0
LINE
  5
216
330
17
100
AcDbEntity
  8
OUT57
100
AcDbLine
 10
263.5750505879606
 20
221.584699478149
 30
0.0
 11
267.5750505879606
 21
227.584699478149
 31
0.0
  0
LINE
  5
217
330
17
100
AcDbEntity
  8
OUT57
100
AcDbLine
 10
267.5750505879606
 20
227.584699478149
 30
0.0
 11
274.0750505879605
 21
286.744699478149
 31
0.0
  0
LINE
  5
22A
330
17
100
AcDbEntity
  8
CL
100
AcDbLine
 10
263.5750505879605
 20
667.8662990761361
 30
0.0
 11
263.5750505879605
 21
587.866299076136
 31
0.0
  0
LINE
  5
22E
330
17
100
AcDbEntity
  8
CL
100
AcDbLine
 10
263.5750505879605
 20
558.0505528573118
 30
0.0
 11
263.5750505879605
 21
462.0505528573118
 31
0.0
  0
LINE
  5
232
330
17
100
AcDbEntity
  8
CL
100
AcDbLine
 10
263.5750505879605
 20
408.3818000680683
 30
0.0
 11
263.5750505879605
 21
323.3818000680683
 31
0.0
  0
LINE
  5
238
330
17
100
AcDbEntity
  8
CL
100
AcDbLine
 10
263.5750505879605
 20
291.744699478149
 30
0.0
 11
263.5750505879605
 21
221.584699478149
 31
0.0
  0
LINE
  5
4D1
330
17
100
AcDbEntity
  8
CL
100
AcDbLine
 10
518.9867475240758
 20
740.2121880017999
 30
0.0
 11
1046.986747524075
 21
740.2121880017999
 31
0.0
  0
LINE
  5
4D2
330
17
100
AcDbEntity
  8
CL
100
AcDbLine
 10
1046.986747524075
 20
740.2121880017999
 30
0.0
 11
1046.986747524075
 21
703.2908312956264
 31
0.0
  0
LINE
  5
4EA
330
17
100
AcDbEntity
  8
CL
100
AcDbLine
 10
914.9867475240757
 20
740.2121880017999
 30
0.0
 11
914.9867475240757
 21
647.7805169026392
 31
0.0
  0
LINE
  5
4EB
330
17
100
AcDbEntity
  8
CL
100
AcDbLine
 10
782.9867475240757
 20
740.2121880017999
 30
0.0
 11
782.9867475240757
 21
642.5339152385954
 31
0.0
  0
LINE
  5
4EC
330
17
100
AcDbEntity
  8
CL
100
AcDbLine
 10
650.9867475240757
 20
740.2121880017999
 30
0.0
 11
650.9867475240759
 21
656.0653155140512
 31
0.0
  0
POLYLINE
  5
58D
330
17
100
AcDbEntity
  8
OUT57
100
AcDb2dPolyline
 66
     1
 10
0.0
 20
0.0
 30
0.0
 70
     4
 75
     6
  0
VERTEX
  5
905
330
58D
100
AcDbEntity
  8
OUT57
100
AcDbVertex
100
AcDb2dVertex
 10
1046.986747524075
 20
669.375641059309
 30
0.0
 70
    16
  0
VERTEX
  5
906
330
58D
100
AcDbEntity
  8
OUT57
100
AcDbVertex
100
AcDb2dVertex
 10
1046.986747524075
 20
669.375641059309
 30
0.0
 70
     8
  0
VERTEX
  5
907
330
58D
100
AcDbEntity
  8
OUT57
100
AcDbVertex
100
AcDb2dVertex
 10
1041.687328833573
 20
668.336209240277
 30
0.0
 70
     8
  0
VERTEX
  5
908
330
58D
100
AcDbEntity
  8
OUT57
100
AcDbVertex
100
AcDb2dVertex
 10
1027.409886969323
 20
665.6011854269087
 30
0.0
 70
     8
  0
VERTEX
  5
909
330
58D
100
AcDbEntity
  8
OUT57
100
AcDbVertex
100
AcDb2dVertex
 10
1006.330526417847
 20
661.6947074994198
 30
0.0
 70
     8
  0
VERTEX
  5
90A
330
58D
100
AcDbEntity
  8
OUT57
100
AcDbVertex
100
AcDb2dVertex
 10
980.6253516656727
 20
657.1409133380265
 30
0.0
 70
     8
  0
VERTEX
  5
90B
330
58D
100
AcDbEntity
  8
OUT57
100
AcDbVertex
100
AcDb2dVertex
 10
952.4704671993223
 20
652.4639408229447
 30
0.0
 70
     8
  0
VERTEX
  5
90C
330
58D
100
AcDbEntity
  8
OUT57
100
AcDbVertex
100
AcDb2dVertex
 10
924.0419775053211
 20
648.18792783439
 30
0.0
 70
     8
  0
VERTEX
  5
90D
330
58D
100
AcDbEntity
  8
OUT57
100
AcDbVertex
100
AcDb2dVertex
 10
897.0514032088273
 20
644.7525272758282
 30
0.0
 70
     8
  0
VERTEX
  5
90E
330
58D
100
AcDbEntity
  8
OUT57
100
AcDbVertex
100
AcDb2dVertex
 10
871.3519294895402
 20
642.2594521437217
 30
0.0
 70
     8
  0
VERTEX
  5
90F
330
58D
100
AcDbEntity
  8
OUT57
100
AcDbVertex
100
AcDb2dVertex
 10
846.3321576657939
 20
640.7259304577827
 30
0.0
 70
     8
  0
VERTEX
  5
910
330
58D
100
AcDbEntity
  8
OUT57
100
AcDbVertex
100
AcDb2dVertex
 10
821.3806890559219
 20
640.1691902377231
 30
0.0
 70
     8
  0
VERTEX
  5
911
330
58D
100
AcDbEntity
  8
OUT57
100
AcDbVertex
100
AcDb2dVertex
 10
795.8861249782581
 20
640.6064595032549
 30
0.0
 70
     8
  0
VERTEX
  5
912
330
58D
100
AcDbEntity
  8
OUT57
100
AcDbVertex
100
AcDb2dVertex
 10
769.2370667511368
 20
642.05496627409
 30
0.0
 70
     8
  0
VERTEX
  5
913
330
58D
100
AcDbEntity
  8
OUT57
100
AcDbVertex
100
AcDb2dVertex
 10
740.6745542736671
 20
644.5416918153673
 30
0.0
 70
     8
  0
VERTEX
  5
914
330
58D
100
AcDbEntity
  8
OUT57
100
AcDbVertex
100
AcDb2dVertex
 10
708.8493817680625
 20
648.1326303739327
 30
0.0
 70
     8
  0
VERTEX
  5
915
330
58D
100
AcDbEntity
  8
OUT57
100
AcDbVertex
100
AcDb2dVertex
 10
672.2647820373119
 20
652.9035294420586
 30
0.0
 70
     8
  0
VERTEX
  5
916
330
58D
100
AcDbEntity
  8
OUT57
100
AcDbVertex
100
AcDb2dVertex
 10
629.4239878844047
 20
658.9301365120173
 30
0.0
 70
     8
  0
VERTEX
  5
917
330
58D
100
AcDbEntity
  8
OUT57
100
AcDbVertex
100
AcDb2dVertex
 10
578.8302321123294
 20
666.2881990760816
 30
0.0
 70
     8
  0
VERTEX
  5
918
330
58D
100
AcDbEntity
  8
OUT57
100
AcDbVertex
100
AcDb2dVertex
 10
518.9867475240758
 20
675.0534646265239
 30
0.0
 70
     8
  0
VERTEX
  5
591
330
58D
100
AcDbEntity
  8
OUT57
100
AcDbVertex
100
AcDb2dVertex
 10
1046.816669641169
 20
669.3417946690588
 30
0.0
 70
    16
  0
VERTEX
  5
592
330
58D
100
AcDbEntity
  8
OUT57
100
AcDbVertex
100
AcDb2dVertex
 10
912.6269819520835
 20
642.6373433939297
 30
0.0
 70
    16
  0
VERTEX
  5
593
330
58D
100
AcDbEntity
  8
OUT57
100
AcDbVertex
100
AcDb2dVertex
 10
779.8324237378807
 20
635.8841731239972
 30
0.0
 70
    16
  0
VERTEX
  5
594
330
58D
100
AcDbEntity
  8
OUT57
100
AcDbVertex
100
AcDb2dVertex
 10
648.9212903147694
 20
656.0652322110796
 30
0.0
 70
    16
  0
VERTEX
  5
595
330
58D
100
AcDbEntity
  8
OUT57
100
AcDbVertex
100
AcDb2dVertex
 10
518.9867475240758
 20
675.0534646265239
 30
0.0
 70
    16
  0
SEQEND
  5
596
330
58D
100
AcDbEntity
  8
OUT57
  0
LINE
  5
5A4
330
17
100
AcDbEntity
  8
OUT57
100
AcDbLine
 10
518.9867475240758
 20
740.2121880017999
 30
0.0
 11
1046.986747524075
 21
703.2908312956264
 31
0.0
  0
POLYLINE
  5
658
330
17
100
AcDbEntity
  8
OUT57
100
AcDb2dPolyline
 66
     1
 10
0.0
 20
0.0
 30
0.0
 70
     4
 75
     6
  0
VERTEX
  5
65C
330
658
100
AcDbEntity
  8
OUT57
100
AcDbVertex
100
AcDb2dVertex
 10
1046.986747524075
 20
675.2908312956264
 30
0.0
 70
    16
  0
VERTEX
  5
662
330
658
100
AcDbEntity
  8
OUT57
100
AcDbVertex
100
AcDb2dVertex
 10
1046.986747524075
 20
675.2908312956264
 30
0.0
 70
     8
  0
VERTEX
  5
663
330
658
100
AcDbEntity
  8
OUT57
100
AcDbVertex
100
AcDb2dVertex
 10
986.1811919685202
 20
671.9556283506424
 30
0.0
 70
     8
  0
VERTEX
  5
664
330
658
100
AcDbEntity
  8
OUT57
100
AcDbVertex
100
AcDb2dVertex
 10
934.5423030796311
 20
669.6232467355486
 30
0.0
 70
     8
  0
VERTEX
  5
665
330
658
100
AcDbEntity
  8
OUT57
100
AcDbVertex
100
AcDb2dVertex
 10
890.2367475240758
 20
668.149036044947
 30
0.0
 70
     8
  0
VERTEX
  5
666
330
658
100
AcDbEntity
  8
OUT57
100
AcDbVertex
100
AcDb2dVertex
 10
851.43119196852
 20
667.3883458734397
 30
0.0
 70
     8
  0
VERTEX
  5
667
330
658
100
AcDbEntity
  8
OUT57
100
AcDbVertex
100
AcDb2dVertex
 10
816.2923030796314
 20
667.1965258156286
 30
0.0
 70
     8
  0
VERTEX
  5
668
330
658
100
AcDbEntity
  8
OUT57
100
AcDbVertex
100
AcDb2dVertex
 10
782.9867475240757
 20
667.4289254661165
 30
0.0
 70
     8
  0
VERTEX
  5
669
330
658
100
AcDbEntity
  8
OUT57
100
AcDbVertex
100
AcDb2dVertex
 10
749.6811919685202
 20
667.993767907749
 30
0.0
 70
     8
  0
VERTEX
  5
66A
330
658
100
AcDbEntity
  8
OUT57
100
AcDbVertex
100
AcDb2dVertex
 10
714.5423030796312
 20
669.01077017635
 30
0.0
 70
     8
  0
VERTEX
  5
66B
330
658
100
AcDbEntity
  8
OUT57
100
AcDbVertex
100
AcDb2dVertex
 10
675.7367475240758
 20
670.6525227959875
 30
0.0
 70
     8
  0
VERTEX
  5
66C
330
658
100
AcDbEntity
  8
OUT57
100
AcDbVertex
100
AcDb2dVertex
 10
631.4311919685202
 20
673.0916162907297
 30
0.0
 70
     8
  0
VERTEX
  5
66D
330
658
100
AcDbEntity
  8
OUT57
100
AcDbVertex
100
AcDb2dVertex
 10
579.7923030796312
 20
676.5006411846448
 30
0.0
 70
     8
  0
VERTEX
  5
66E
330
658
100
AcDbEntity
  8
OUT57
100
AcDbVertex
100
AcDb2dVertex
 10
518.9867475240758
 20
681.0521880018002
 30
0.0
 70
     8
  0
VERTEX
  5
65D
330
658
100
AcDbEntity
  8
OUT57
100
AcDbVertex
100
AcDb2dVertex
 10
914.9867475240757
 20
667.5211704721697
 30
0.0
 70
    16
  0
VERTEX
  5
65E
330
658
100
AcDbEntity
  8
OUT57
100
AcDbVertex
100
AcDb2dVertex
 10
782.9867475240757
 20
665.7515096487132
 30
0.0
 70
    16
  0
VERTEX
  5
65F
330
658
100
AcDbEntity
  8
OUT57
100
AcDbVertex
100
AcDb2dVertex
 10
650.9867475240757
 20
670.6915120948698
 30
0.0
 70
    16
  0
VERTEX
  5
660
330
658
100
AcDbEntity
  8
OUT57
100
AcDbVertex
100
AcDb2dVertex
 10
518.9867475240758
 20
681.0521880018001
 30
0.0
 70
    16
  0
SEQEND
  5
661
330
658
100
AcDbEntity
  8
OUT57
  0
LINE
  5
6E9
330
17
100
AcDbEntity
  8
CL
100
AcDbLine
 10
477.885051598812
 20
497.0054375973393
 30
0.0
 11
1098.576701831238
 21
497.0054375973393
 31
0.0
  0
LINE
  5
6EA
330
17
100
AcDbEntity
  8
OUT57
100
AcDbLine
 10
518.9867475240758
 20
740.2121880017999
 30
0.0
 11
518.9867475240758
 21
675.0534646265239
 31
0.0
  0
LINE
  5
6EB
330
17
100
AcDbEntity
  8
OUT57
100
AcDbLine
 10
518.9867475240758
 20
507.5054375973393
 30
0.0
 11
518.9867475240759
 21
486.5054375973393
 31
0.0
  0
LINE
  5
72F
330
17
100
AcDbEntity
  8
CL
100
AcDbLine
 10
650.9867475240756
 20
553.0054375973393
 30
0.0
 11
650.9867475240757
 21
441.0054375973394
 31
0.0
  0
LINE
  5
732
330
17
100
AcDbEntity
  8
CL
100
AcDbLine
 10
782.9867475240757
 20
580.560704844875
 30
0.0
 11
782.9867475240757
 21
414.0054375973392
 31
0.0
  0
LINE
  5
735
330
17
100
AcDbEntity
  8
CL
100
AcDbLine
 10
914.9867475240757
 20
560.5032249360938
 30
0.0
 11
914.9867475240757
 21
433.5076502585848
 31
0.0
  0
LINE
  5
738
330
17
100
AcDbEntity
  8
OUT57
100
AcDbLine
 10
1046.986747524076
 20
516.0054375973393
 30
0.0
 11
1046.986747524075
 21
478.0054375973393
 31
0.0
  0
POLYLINE
  5
740
330
17
100
AcDbEntity
  8
OUT57
100
AcDb2dPolyline
 66
     1
 10
0.0
 20
0.0
 30
0.0
 70
     4
 75
     6
  0
VERTEX
  5
744
330
740
100
AcDbEntity
  8
OUT57
100
AcDbVertex
100
AcDb2dVertex
 10
518.9867475240758
 20
507.5054375973393
 30
0.0
 70
    16
  0
VERTEX
  5
74A
330
740
100
AcDbEntity
  8
OUT57
100
AcDbVertex
100
AcDb2dVertex
 10
518.9867475240758
 20
507.5054375973393
 30
0.0
 70
     8
  0
VERTEX
  5
74B
330
740
100
AcDbEntity
  8
OUT57
100
AcDbVertex
100
AcDb2dVertex
 10
579.7923030796312
 20
528.5158972082679
 30
0.0
 70
     8
  0
VERTEX
  5
74C
330
740
100
AcDbEntity
  8
OUT57
100
AcDbVertex
100
AcDb2dVertex
 10
631.4311919685201
 20
546.0290254022559
 30
0.0
 70
     8
  0
VERTEX
  5
74D
330
740
100
AcDbEntity
  8
OUT57
100
AcDbVertex
100
AcDb2dVertex
 10
675.7367475240756
 20
560.0174462211072
 30
0.0
 70
     8
  0
VERTEX
  5
74E
330
740
100
AcDbEntity
  8
OUT57
100
AcDbVertex
100
AcDb2dVertex
 10
714.5423030796312
 20
570.453783706625
 30
0.0
 70
     8
  0
VERTEX
  5
74F
330
740
100
AcDbEntity
  8
OUT57
100
AcDbVertex
100
AcDb2dVertex
 10
749.68119196852
 20
577.310661900613
 30
0.0
 70
     8
  0
VERTEX
  5
750
330
740
100
AcDbEntity
  8
OUT57
100
AcDbVertex
100
AcDb2dVertex
 10
782.9867475240757
 20
580.560704844875
 30
0.0
 70
     8
  0
VERTEX
  5
751
330
740
100
AcDbEntity
  8
OUT57
100
AcDbVertex
100
AcDb2dVertex
 10
816.2923030796314
 20
580.1451526413537
 30
0.0
 70
     8
  0
VERTEX
  5
752
330
740
100
AcDbEntity
  8
OUT57
100
AcDbVertex
100
AcDb2dVertex
 10
851.43119196852
 20
575.8797096325508
 30
0.0
 70
     8
  0
VERTEX
  5
753
330
740
100
AcDbEntity
  8
OUT57
100
AcDbVertex
100
AcDb2dVertex
 10
890.2367475240758
 20
567.5486962211071
 30
0.0
 70
     8
  0
VERTEX
  5
754
330
740
100
AcDbEntity
  8
OUT57
100
AcDbVertex
100
AcDb2dVertex
 10
934.5423030796311
 20
554.9364328096634
 30
0.0
 70
     8
  0
VERTEX
  5
755
330
740
100
AcDbEntity
  8
OUT57
100
AcDbVertex
100
AcDb2dVertex
 10
986.1811919685202
 20
537.8272398008605
 30
0.0
 70
     8
  0
VERTEX
  5
756
330
740
100
AcDbEntity
  8
OUT57
100
AcDbVertex
100
AcDb2dVertex
 10
1046.986747524075
 20
516.0054375973393
 30
0.0
 70
     8
  0
VERTEX
  5
745
330
740
100
AcDbEntity
  8
OUT57
100
AcDbVertex
100
AcDb2dVertex
 10
650.9867475240756
 20
553.0054375973393
 30
0.0
 70
    16
  0
VERTEX
  5
746
330
740
100
AcDbEntity
  8
OUT57
100
AcDbVertex
100
AcDb2dVertex
 10
782.9867475240757
 20
602.3659720924107
 30
0.0
 70
    16
  0
VERTEX
  5
747
330
740
100
AcDbEntity
  8
OUT57
100
AcDbVertex
100
AcDb2dVertex
 10
914.9867475240757
 20
564.5054375973391
 30
0.0
 70
    16
  0
VERTEX
  5
748
330
740
100
AcDbEntity
  8
OUT57
100
AcDbVertex
100
AcDb2dVertex
 10
1046.986747524076
 20
516.0054375973393
 30
0.0
 70
    16
  0
SEQEND
  5
749
330
740
100
AcDbEntity
  8
OUT57
  0
POLYLINE
  5
7D6
330
17
100
AcDbEntity
  8
HID
100
AcDb2dPolyline
 66
     1
 10
0.0
 20
0.0
 30
0.0
 70
     4
 75
     6
  0
VERTEX
  5
7DA
330
7D6
100
AcDbEntity
  8
HID
100
AcDbVertex
100
AcDb2dVertex
 10
1046.986747524076
 20
511.5054375973393
 30
0.0
 70
    16
  0
VERTEX
  5
7E0
330
7D6
100
AcDbEntity
  8
HID
100
AcDbVertex
100
AcDb2dVertex
 10
1046.986747524076
 20
511.5054375973393
 30
0.0
 70
     8
  0
VERTEX
  5
7E1
330
7D6
100
AcDbEntity
  8
HID
100
AcDbVertex
100
AcDb2dVertex
 10
986.1811919685203
 20
531.6730639233847
 30
0.0
 70
     8
  0
VERTEX
  5
7E2
330
7D6
100
AcDbEntity
  8
HID
100
AcDbVertex
100
AcDb2dVertex
 10
934.5423030796316
 20
547.5258276551658
 30
0.0
 70
     8
  0
VERTEX
  5
7E3
330
7D6
100
AcDbEntity
  8
HID
100
AcDbVertex
100
AcDb2dVertex
 10
890.2367475240758
 20
559.2435559231477
 30
0.0
 70
     8
  0
VERTEX
  5
7E4
330
7D6
100
AcDbEntity
  8
HID
100
AcDbVertex
100
AcDb2dVertex
 10
851.4311919685205
 20
567.006075857796
 30
0.0
 70
     8
  0
VERTEX
  5
7E5
330
7D6
100
AcDbEntity
  8
HID
100
AcDbVertex
100
AcDb2dVertex
 10
816.2923030796317
 20
570.9932145895767
 30
0.0
 70
     8
  0
VERTEX
  5
7E6
330
7D6
100
AcDbEntity
  8
HID
100
AcDbVertex
100
AcDb2dVertex
 10
782.9867475240757
 20
571.384799248956
 30
0.0
 70
     8
  0
VERTEX
  5
7E7
330
7D6
100
AcDbEntity
  8
HID
100
AcDbVertex
100
AcDb2dVertex
 10
749.6811919685202
 20
568.3268951451325
 30
0.0
 70
     8
  0
VERTEX
  5
7E8
330
7D6
100
AcDbEntity
  8
HID
100
AcDbVertex
100
AcDb2dVertex
 10
714.5423030796312
 20
561.8305203022405
 30
0.0
 70
     8
  0
VERTEX
  5
7E9
330
7D6
100
AcDbEntity
  8
HID
100
AcDbVertex
100
AcDb2dVertex
 10
675.7367475240756
 20
551.8729309231477
 30
0.0
 70
     8
  0
VERTEX
  5
7EA
330
7D6
100
AcDbEntity
  8
HID
100
AcDbVertex
100
AcDb2dVertex
 10
631.4311919685201
 20
538.4313832107213
 30
0.0
 70
     8
  0
VERTEX
  5
7EB
330
7D6
100
AcDbEntity
  8
HID
100
AcDbVertex
100
AcDb2dVertex
 10
579.7923030796312
 20
521.4831333678294
 30
0.0
 70
     8
  0
VERTEX
  5
7EC
330
7D6
100
AcDbEntity
  8
HID
100
AcDbVertex
100
AcDb2dVertex
 10
518.9867475240754
 20
501.0054375973391
 30
0.0
 70
     8
  0
VERTEX
  5
7DB
330
7D6
100
AcDbEntity
  8
HID
100
AcDbVertex
100
AcDb2dVertex
 10
914.9867475240757
 20
556.2754375973391
 30
0.0
 70
    16
  0
VERTEX
  5
7DC
330
7D6
100
AcDbEntity
  8
HID
100
AcDbVertex
100
AcDb2dVertex
 10
782.9867475240757
 20
591.8791609005727
 30
0.0
 70
    16
  0
VERTEX
  5
7DD
330
7D6
100
AcDbEntity
  8
HID
100
AcDbVertex
100
AcDb2dVertex
 10
650.9867475240756
 20
545.5054375973393
 30
0.0
 70
    16
  0
VERTEX
  5
7DE
330
7D6
100
AcDbEntity
  8
HID
100
AcDbVertex
100
AcDb2dVertex
 10
518.9867475240758
 20
501.0054375973393
 30
0.0
 70
    16
  0
SEQEND
  5
7DF
330
7D6
100
AcDbEntity
  8
HID
  0
LINE
  5
7FF
330
17
100
AcDbEntity
  8
OUT57
100
AcDbLine
 10
200.1505273642969
 20
662.8662990761362
 30
0.0
 11
208.6505273642968
 21
619.3162990761362
 31
0.0
  0
LINE
  5
800
330
17
100
AcDbEntity
  8
OUT57
100
AcDbLine
 10
326.999573811624
 20
662.8662990761362
 30
0.0
 11
263.5750505879605
 21
662.8662990761362
 31
0.0
  0
LINE
  5
801
330
17
100
AcDbEntity
  8
OUT57
100
AcDbLine
 10
326.999573811624
 20
662.8662990761362
 30
0.0
 11
318.4995738116241
 21
619.3162990761362
 31
0.0
  0
LINE
  5
802
330
17
100
AcDbEntity
  8
OUT57
100
AcDbLine
 10
318.4995738116241
 20
619.3162990761362
 30
0.0
 11
263.5750505879605
 21
598.1262990761361
 31
0.0
  0
POLYLINE
  5
804
330
17
100
AcDbEntity
  8
OUT57
100
AcDb2dPolyline
 66
     1
 10
0.0
 20
0.0
 30
0.0
 70
     4
 75
     6
  0
VERTEX
  5
805
330
804
100
AcDbEntity
  8
OUT57
100
AcDbVertex
100
AcDb2dVertex
 10
518.9867475240758
 20
486.5054375973391
 30
0.0
 70
    16
  0
VERTEX
  5
806
330
804
100
AcDbEntity
  8
OUT57
100
AcDbVertex
100
AcDb2dVertex
 10
518.9867475240758
 20
486.5054375973391
 30
0.0
 70
     8
  0
VERTEX
  5
807
330
804
100
AcDbEntity
  8
OUT57
100
AcDbVertex
100
AcDb2dVertex
 10
579.7923030796312
 20
465.4949779864105
 30
0.0
 70
     8
  0
VERTEX
  5
808
330
804
100
AcDbEntity
  8
OUT57
100
AcDbVertex
100
AcDb2dVertex
 10
631.4311919685201
 20
447.9818497924226
 30
0.0
 70
     8
  0
VERTEX
  5
809
330
804
100
AcDbEntity
  8
OUT57
100
AcDbVertex
100
AcDb2dVertex
 10
675.7367475240756
 20
433.9934289735714
 30
0.0
 70
     8
  0
VERTEX
  5
80A
330
804
100
AcDbEntity
  8
OUT57
100
AcDbVertex
100
AcDb2dVertex
 10
714.5423030796312
 20
423.5570914880535
 30
0.0
 70
     8
  0
VERTEX
  5
80B
330
804
100
AcDbEntity
  8
OUT57
100
AcDbVertex
100
AcDb2dVertex
 10
749.68119196852
 20
416.7002132940655
 30
0.0
 70
     8
  0
VERTEX
  5
80C
330
804
100
AcDbEntity
  8
OUT57
100
AcDbVertex
100
AcDb2dVertex
 10
782.9867475240757
 20
413.4501703498036
 30
0.0
 70
     8
  0
VERTEX
  5
80D
330
804
100
AcDbEntity
  8
OUT57
100
AcDbVertex
100
AcDb2dVertex
 10
816.2923030796314
 20
413.8657225533246
 30
0.0
 70
     8
  0
VERTEX
  5
80E
330
804
100
AcDbEntity
  8
OUT57
100
AcDbVertex
100
AcDb2dVertex
 10
851.43119196852
 20
418.1311655621276
 30
0.0
 70
     8
  0
VERTEX
  5
80F
330
804
100
AcDbEntity
  8
OUT57
100
AcDbVertex
100
AcDb2dVertex
 10
890.2367475240758
 20
426.4621789735714
 30
0.0
 70
     8
  0
VERTEX
  5
810
330
804
100
AcDbEntity
  8
OUT57
100
AcDbVertex
100
AcDb2dVertex
 10
934.5423030796311
 20
439.0744423850152
 30
0.0
 70
     8
  0
VERTEX
  5
811
330
804
100
AcDbEntity
  8
OUT57
100
AcDbVertex
100
AcDb2dVertex
 10
986.1811919685202
 20
456.1836353938181
 30
0.0
 70
     8
  0
VERTEX
  5
812
330
804
100
AcDbEntity
  8
OUT57
100
AcDbVertex
100
AcDb2dVertex
 10
1046.986747524075
 20
478.0054375973393
 30
0.0
 70
     8
  0
VERTEX
  5
813
330
804
100
AcDbEntity
  8
OUT57
100
AcDbVertex
100
AcDb2dVertex
 10
650.9867475240756
 20
441.0054375973391
 30
0.0
 70
    16
  0
VERTEX
  5
814
330
804
100
AcDbEntity
  8
OUT57
100
AcDbVertex
100
AcDb2dVertex
 10
782.9867475240757
 20
391.6449031022679
 30
0.0
 70
    16
  0
VERTEX
  5
815
330
804
100
AcDbEntity
  8
OUT57
100
AcDbVertex
100
AcDb2dVertex
 10
914.9867475240757
 20
429.5054375973391
 30
0.0
 70
    16
  0
VERTEX
  5
816
330
804
100
AcDbEntity
  8
OUT57
100
AcDbVertex
100
AcDb2dVertex
 10
1046.986747524076
 20
478.0054375973393
 30
0.0
 70
    16
  0
SEQEND
  5
817
330
804
100
AcDbEntity
  8
OUT57
  0
POLYLINE
  5
818
330
17
100
AcDbEntity
  8
HID
100
AcDb2dPolyline
 66
     1
 10
0.0
 20
0.0
 30
0.0
 70
     4
 75
     6
  0
VERTEX
  5
819
330
818
100
AcDbEntity
  8
HID
100
AcDbVertex
100
AcDb2dVertex
 10
1046.986747524076
 20
482.5054375973393
 30
0.0
 70
    16
  0
VERTEX
  5
81A
330
818
100
AcDbEntity
  8
HID
100
AcDbVertex
100
AcDb2dVertex
 10
1046.986747524076
 20
482.5054375973393
 30
0.0
 70
     8
  0
VERTEX
  5
81B
330
818
100
AcDbEntity
  8
HID
100
AcDbVertex
100
AcDb2dVertex
 10
986.1811919685203
 20
462.3378112712936
 30
0.0
 70
     8
  0
VERTEX
  5
81C
330
818
100
AcDbEntity
  8
HID
100
AcDbVertex
100
AcDb2dVertex
 10
934.5423030796316
 20
446.4850475395127
 30
0.0
 70
     8
  0
VERTEX
  5
81D
330
818
100
AcDbEntity
  8
HID
100
AcDbVertex
100
AcDb2dVertex
 10
890.2367475240758
 20
434.7673192715309
 30
0.0
 70
     8
  0
VERTEX
  5
81E
330
818
100
AcDbEntity
  8
HID
100
AcDbVertex
100
AcDb2dVertex
 10
851.4311919685205
 20
427.0047993368826
 30
0.0
 70
     8
  0
VERTEX
  5
81F
330
818
100
AcDbEntity
  8
HID
100
AcDbVertex
100
AcDb2dVertex
 10
816.2923030796317
 20
423.0176606051017
 30
0.0
 70
     8
  0
VERTEX
  5
820
330
818
100
AcDbEntity
  8
HID
100
AcDbVertex
100
AcDb2dVertex
 10
782.9867475240757
 20
422.6260759457225
 30
0.0
 70
     8
  0
VERTEX
  5
821
330
818
100
AcDbEntity
  8
HID
100
AcDbVertex
100
AcDb2dVertex
 10
749.6811919685202
 20
425.683980049546
 30
0.0
 70
     8
  0
VERTEX
  5
822
330
818
100
AcDbEntity
  8
HID
100
AcDbVertex
100
AcDb2dVertex
 10
714.5423030796312
 20
432.1803548924379
 30
0.0
 70
     8
  0
VERTEX
  5
823
330
818
100
AcDbEntity
  8
HID
100
AcDbVertex
100
AcDb2dVertex
 10
675.7367475240756
 20
442.1379442715308
 30
0.0
 70
     8
  0
VERTEX
  5
824
330
818
100
AcDbEntity
  8
HID
100
AcDbVertex
100
AcDb2dVertex
 10
631.4311919685201
 20
455.5794919839573
 30
0.0
 70
     8
  0
VERTEX
  5
825
330
818
100
AcDbEntity
  8
HID
100
AcDbVertex
100
AcDb2dVertex
 10
579.7923030796312
 20
472.5277418268492
 30
0.0
 70
     8
  0
VERTEX
  5
826
330
818
100
AcDbEntity
  8
HID
100
AcDbVertex
100
AcDb2dVertex
 10
518.9867475240754
 20
493.0054375973393
 30
0.0
 70
     8
  0
VERTEX
  5
827
330
818
100
AcDbEntity
  8
HID
100
AcDbVertex
100
AcDb2dVertex
 10
914.9867475240757
 20
437.7354375973393
 30
0.0
 70
    16
  0
VERTEX
  5
828
330
818
100
AcDbEntity
  8
HID
100
AcDbVertex
100
AcDb2dVertex
 10
782.9867475240757
 20
402.1317142941058
 30
0.0
 70
    16
  0
VERTEX
  5
829
330
818
100
AcDbEntity
  8
HID
100
AcDbVertex
100
AcDb2dVertex
 10
650.9867475240756
 20
448.5054375973393
 30
0.0
 70
    16
  0
VERTEX
  5
82A
330
818
100
AcDbEntity
  8
HID
100
AcDbVertex
100
AcDb2dVertex
 10
518.9867475240758
 20
493.0054375973393
 30
0.0
 70
    16
  0
SEQEND
  5
82B
330
818
100
AcDbEntity
  8
HID
  0
LINE
  5
82D
330
17
100
AcDbEntity
  8
OUT57
100
AcDbLine
 10
471.436309479874
 20
234.4710010805286
 30
0.0
 11
1003.436309479874
 21
234.4710010805286
 31
0.0
  0
LINE
  5
82E
330
17
100
AcDbEntity
  8
OUT57
100
AcDbLine
 10
471.436309479874
 20
234.4710010805286
 30
0.0
 11
471.436309479874
 21
227.3510010805285
 31
0.0
  0
LINE
  5
874
330
17
100
AcDbEntity
  8
CL
100
AcDbLine
 10
604.4363094798741
 20
234.4710010805286
 30
0.0
 11
604.4363094798741
 21
184.2330738336327
 31
0.0
  0
LINE
  5
875
330
17
100
AcDbEntity
  8
CL
100
AcDbLine
 10
737.4363094798741
 20
234.4710010805286
 30
0.0
 11
737.4363094798742
 21
156.1410010805286
 31
0.0
  0
LINE
  5
876
330
17
100
AcDbEntity
  8
CL
100
AcDbLine
 10
870.4363094798742
 20
234.4710010805286
 30
0.0
 11
870.4363094798742
 21
177.4482462474258
 31
0.0
  0
LINE
  5
877
330
17
100
AcDbEntity
  8
OUT57
100
AcDbLine
 10
1003.436309479874
 20
234.4710010805286
 30
0.0
 11
1003.436309479874
 21
218.7810010805287
 31
0.0
  0
CIRCLE
  5
881
330
17
100
AcDbEntity
  8
CL
100
AcDbCircle
 10
1003.436309479874
 20
218.7810010805286
 30
0.0
 40
1.0
  0
POLYLINE
  5
886
330
17
100
AcDbEntity
  8
OUT57
100
AcDb2dPolyline
 66
     1
 10
0.0
 20
0.0
 30
0.0
 70
     4
 75
     6
  0
VERTEX
  5
88A
330
886
100
AcDbEntity
  8
OUT57
100
AcDbVertex
100
AcDb2dVertex
 10
471.436309479874
 20
227.3510010805286
 30
0.0
 70
    16
  0
VERTEX
  5
890
330
886
100
AcDbEntity
  8
OUT57
100
AcDbVertex
100
AcDb2dVertex
 10
471.436309479874
 20
227.3510010805286
 30
0.0
 70
     8
  0
VERTEX
  5
891
330
886
100
AcDbEntity
  8
OUT57
100
AcDbVertex
100
AcDb2dVertex
 10
532.7025131835778
 20
207.3143945804588
 30
0.0
 70
     8
  0
VERTEX
  5
892
330
886
100
AcDbEntity
  8
OUT57
100
AcDbVertex
100
AcDb2dVertex
 10
584.7326057761703
 20
190.3153783302845
 30
0.0
 70
     8
  0
VERTEX
  5
893
330
886
100
AcDbEntity
  8
OUT57
100
AcDbVertex
100
AcDb2dVertex
 10
629.3738094798742
 20
176.5351572050578
 30
0.0
 70
     8
  0
VERTEX
  5
894
330
886
100
AcDbEntity
  8
OUT57
100
AcDbVertex
100
AcDb2dVertex
 10
668.4733465169111
 20
166.1549360798311
 30
0.0
 70
     8
  0
VERTEX
  5
895
330
886
100
AcDbEntity
  8
OUT57
100
AcDbVertex
100
AcDb2dVertex
 10
703.8784391095039
 20
159.3559198296567
 30
0.0
 70
     8
  0
VERTEX
  5
896
330
886
100
AcDbEntity
  8
OUT57
100
AcDbVertex
100
AcDb2dVertex
 10
737.4363094798741
 20
156.3193133295871
 30
0.0
 70
     8
  0
VERTEX
  5
897
330
886
100
AcDbEntity
  8
OUT57
100
AcDbVertex
100
AcDb2dVertex
 10
770.9941798502444
 20
157.1870772370642
 30
0.0
 70
     8
  0
VERTEX
  5
898
330
886
100
AcDbEntity
  8
OUT57
100
AcDbVertex
100
AcDb2dVertex
 10
806.399272442837
 20
161.9441953390904
 30
0.0
 70
     8
  0
VERTEX
  5
899
330
886
100
AcDbEntity
  8
OUT57
100
AcDbVertex
100
AcDb2dVertex
 10
845.4988094798737
 20
170.5364072050578
 30
0.0
 70
     8
  0
VERTEX
  5
89A
330
886
100
AcDbEntity
  8
OUT57
100
AcDbVertex
100
AcDb2dVertex
 10
890.1400131835776
 20
182.9094524043585
 30
0.0
 70
     8
  0
VERTEX
  5
89B
330
886
100
AcDbEntity
  8
OUT57
100
AcDbVertex
100
AcDb2dVertex
 10
942.1701057761701
 20
199.0090705063847
 30
0.0
 70
     8
  0
VERTEX
  5
89C
330
886
100
AcDbEntity
  8
OUT57
100
AcDbVertex
100
AcDb2dVertex
 10
1003.436309479873
 20
218.7810010805285
 30
0.0
 70
     8
  0
VERTEX
  5
88B
330
886
100
AcDbEntity
  8
OUT57
100
AcDbVertex
100
AcDb2dVertex
 10
604.4363094798741
 20
184.3610010805285
 30
0.0
 70
    16
  0
VERTEX
  5
88C
330
886
100
AcDbEntity
  8
OUT57
100
AcDbVertex
100
AcDb2dVertex
 10
737.4363094798742
 20
132.6576255786456
 30
0.0
 70
    16
  0
VERTEX
  5
88D
330
886
100
AcDbEntity
  8
OUT57
100
AcDbVertex
100
AcDb2dVertex
 10
870.4363094798742
 20
175.6010010805284
 30
0.0
 70
    16
  0
VERTEX
  5
88E
330
886
100
AcDbEntity
  8
OUT57
100
AcDbVertex
100
AcDb2dVertex
 10
1003.436309479874
 20
218.7810010805286
 30
0.0
 70
    16
  0
SEQEND
  5
88F
330
886
100
AcDbEntity
  8
OUT57
  0
LINE
  5
919
330
17
100
AcDbEntity
  8
OUT57
100
AcDbLine
 10
518.1029808231524
 20
376.2073830622373
 30
0.0
 11
1066.332980823152
 21
376.2073830622373
 31
0.0
  0
LINE
  5
91A
330
17
100
AcDbEntity
  8
OUT57
100
AcDbLine
 10
1066.332980823152
 20
376.2073830622373
 30
0.0
 11
1066.332980823152
 21
347.8473830622373
 31
0.0
  0
LINE
  5
91B
330
17
100
AcDbEntity
  8
OUT57
100
AcDbLine
 10
518.1029808231524
 20
376.2073830622373
 30
0.0
 11
518.1029808231524
 21
316.6873830622374
 31
0.0
  0
LINE
  5
91C
330
17
100
AcDbEntity
  8
CL
100
AcDbLine
 10
655.1604808231522
 20
376.2073830622373
 30
0.0
 11
655.1604808231525
 21
317.2606989730503
 31
0.0
  0
LINE
  5
91D
330
17
100
AcDbEntity
  8
CL
100
AcDbLine
 10
792.2179808231523
 20
376.2073830622373
 30
0.0
 11
792.2179808231523
 21
321.3733416861594
 31
0.0
  0
LINE
  5
91E
330
17
100
AcDbEntity
  8
CL
100
AcDbLine
 10
929.2754808231523
 20
376.2073830622373
 30
0.0
 11
929.2754808231523
 21
332.6472506971882
 31
0.0
  0
POLYLINE
  5
930
330
17
100
AcDbEntity
  8
OUT57
100
AcDb2dPolyline
 66
     1
 10
0.0
 20
0.0
 30
0.0
 70
     4
 75
     6
  0
VERTEX
  5
934
330
930
100
AcDbEntity
  8
OUT57
100
AcDbVertex
100
AcDb2dVertex
 10
1066.332980823152
 20
347.8473830622373
 30
0.0
 70
    16
  0
VERTEX
  5
93A
330
930
100
AcDbEntity
  8
OUT57
100
AcDbVertex
100
AcDb2dVertex
 10
1066.332980823152
 20
347.8473830622373
 30
0.0
 70
     8
  0
VERTEX
  5
93B
330
930
100
AcDbEntity
  8
OUT57
100
AcDbVertex
100
AcDb2dVertex
 10
1003.197697258337
 20
340.5913776825278
 30
0.0
 70
     8
  0
VERTEX
  5
93C
330
930
100
AcDbEntity
  8
OUT57
100
AcDbVertex
100
AcDb2dVertex
 10
949.5802956379671
 20
334.7131871499208
 30
0.0
 70
     8
  0
VERTEX
  5
93D
330
930
100
AcDbEntity
  8
OUT57
100
AcDbVertex
100
AcDb2dVertex
 10
903.5771995731522
 20
330.0325498741984
 30
0.0
 70
     8
  0
VERTEX
  5
93E
330
930
100
AcDbEntity
  8
OUT57
100
AcDbVertex
100
AcDb2dVertex
 10
863.2848326750044
 20
326.3692042651426
 30
0.0
 70
     8
  0
VERTEX
  5
93F
330
930
100
AcDbEntity
  8
OUT57
100
AcDbVertex
100
AcDb2dVertex
 10
826.7996185546342
 20
323.5428887325356
 30
0.0
 70
     8
  0
VERTEX
  5
940
330
930
100
AcDbEntity
  8
OUT57
100
AcDbVertex
100
AcDb2dVertex
 10
792.2179808231523
 20
321.3733416861594
 30
0.0
 70
     8
  0
VERTEX
  5
941
330
930
100
AcDbEntity
  8
OUT57
100
AcDbVertex
100
AcDb2dVertex
 10
757.6363430916708
 20
319.7014766954985
 30
0.0
 70
     8
  0
VERTEX
  5
942
330
930
100
AcDbEntity
  8
OUT57
100
AcDbVertex
100
AcDb2dVertex
 10
721.1511289713005
 20
318.4529079688461
 30
0.0
 70
     8
  0
VERTEX
  5
943
330
930
100
AcDbEntity
  8
OUT57
100
AcDbVertex
100
AcDb2dVertex
 10
680.8587620731524
 20
317.5744248741983
 30
0.0
 70
     8
  0
VERTEX
  5
944
330
930
100
AcDbEntity
  8
OUT57
100
AcDbVertex
100
AcDb2dVertex
 10
634.8556660083374
 20
317.0128167795505
 30
0.0
 70
     8
  0
VERTEX
  5
945
330
930
100
AcDbEntity
  8
OUT57
100
AcDbVertex
100
AcDb2dVertex
 10
581.238264387967
 20
316.7148730528982
 30
0.0
 70
     8
  0
VERTEX
  5
946
330
930
100
AcDbEntity
  8
OUT57
100
AcDbVertex
100
AcDb2dVertex
 10
518.1029808231524
 20
316.6273830622373
 30
0.0
 70
     8
  0
VERTEX
  5
935
330
930
100
AcDbEntity
  8
OUT57
100
AcDbVertex
100
AcDb2dVertex
 10
929.2754808231523
 20
331.8373830622373
 30
0.0
 70
    16
  0
VERTEX
  5
936
330
930
100
AcDbEntity
  8
OUT57
100
AcDbVertex
100
AcDb2dVertex
 10
792.2179808231523
 20
318.5143003100813
 30
0.0
 70
    16
  0
VERTEX
  5
937
330
930
100
AcDbEntity
  8
OUT57
100
AcDbVertex
100
AcDb2dVertex
 10
655.1604808231522
 20
316.6273830622373
 30
0.0
 70
    16
  0
VERTEX
  5
938
330
930
100
AcDbEntity
  8
OUT57
100
AcDbVertex
100
AcDb2dVertex
 10
518.1029808231524
 20
316.6273830622373
 30
0.0
 70
    16
  0
SEQEND
  5
939
330
930
100
AcDbEntity
  8
OUT57
  0
TEXT
  5
949
330
17
100
AcDbEntity
  8
TXT34
 62
     3
100
AcDbText
 10
1046.540262743639
 20
43.14846148454421
 30
0.0
 40
3.5
  1
ABRACADABRA
100
AcDbText
  0
TEXT
  5
94A
330
17
100
AcDbEntity
  8
TXT34
 62
     3
100
AcDbText
 10
1151.253005939988
 20
48.06888019715415
 30
0.0
 40
3.0
  1
1
100
AcDbText
  0
TEXT
  5
94B
330
17
100
AcDbEntity
  8
TXT34
 62
     3
100
AcDbText
 10
1163.887059020131
 20
48.06888019715415
 30
0.0
 40
3.0
  1
1
100
AcDbText
  0
TEXT
  5
94C
330
17
100
AcDbEntity
  8
TXT34
 62
     3
100
AcDbText
 10
1143.465964550108
 20
20.47175148091492
 30
0.0
 40
3.5
  1
1:1
100
AcDbText
  0
TEXT
  5
94D
330
17
100
AcDbEntity
  8
TXT34
 62
     3
100
AcDbText
 10
1143.329955997452
 20
11.51508064196446
 30
0.0
 40
3.5
  1
PGSJ
100
AcDbText
  0
TEXT
  5
94E
330
17
100
AcDbEntity
  8
TXT34
 62
     3
100
AcDbText
 10
861.3199912500716
 20
17.89005904250462
 30
0.0
 40
2.799999999999998
  1
1
100
AcDbText
  0
TEXT
  5
94F
330
17
100
AcDbEntity
  8
TXT34
 62
     3
100
AcDbText
 10
903.989329173436
 20
17.89005904250462
 30
0.0
 40
2.799999999999998
  1
INITIAL ISSUE
100
AcDbText
  0
TEXT
  5
950
330
17
100
AcDbEntity
  8
TXT34
 62
     3
100
AcDbText
 10
974.1438080431676
 20
17.89005904250462
 30
0.0
 40
2.5
  1
18/07/2013
100
AcDbText
  0
TEXT
  5
951
330
17
100
AcDbEntity
  8
TXT34
 62
     3
100
AcDbText
 10
1000.470512702889
 20
17.89005904250462
 30
0.0
 40
2.799999999999998
  1
PGSJ
 72
     2
 11
1010.070512702889
 21
17.89005904250462
 31
0.0
100
AcDbText
  0
TEXT
  5
952
330
17
100
AcDbEntity
  8
TXT34
 62
     3
100
AcDbText
 10
745.5508697518642
 20
14.22572055771491
 30
0.0
 40
4.199999999999998
  1
18/07/2013
 72
     1
 11
764.5508697518643
 21
14.22572055771491
 31
0.0
100
AcDbText
  0
LINE
  5
977
330
17
100
AcDbEntity
  8
OUT57
100
AcDbLine
 10
1046.986747524075
 20
703.2908312956264
 30
0.0
 11
1046.986747524075
 21
669.3756410593088
 31
0.0
  0
ENDSEC
  0
SECTION
  2
OBJECTS
  0
DICTIONARY
  5
C
330
0
100
AcDbDictionary
281
     1
  3
ACAD_COLOR
350
1D7
  3
ACAD_GROUP
350
D
  3
ACAD_LAYOUT
350
D1
  3
ACAD_MATERIAL
350
1D6
  3
ACAD_MLINESTYLE
350
1A
  3
ACAD_PLOTSETTINGS
350
D2
  3
ACAD_PLOTSTYLENAME
350
CF
  3
ACAD_TABLESTYLE
350
1D8
  3
ACDBVARIABLEDICTIONARY
350
2D
  0
DICTIONARY
  5
1E3
330
17
100
AcDbDictionary
280
     1
281
     1
  3
ACAD_SORTENTS
360
1E4
  0
DICTIONARY
  5
1D7
102
{ACAD_REACTORS
330
C
102
}
330
C
100
AcDbDictionary
281
     1
  0
DICTIONARY
  5
D
102
{ACAD_REACTORS
330
C
102
}
330
C
100
AcDbDictionary
281
     1
  0
DICTIONARY
  5
D1
102
{ACAD_REACTORS
330
C
102
}
330
C
100
AcDbDictionary
281
     1
  3
Layout1
350
D4
  3
Model
350
D3
  0
DICTIONARY
  5
1D6
102
{ACAD_REACTORS
330
C
102
}
330
C
100
AcDbDictionary
281
     1
  0
DICTIONARY
  5
1A
102
{ACAD_REACTORS
330
C
102
}
330
C
100
AcDbDictionary
281
     1
  3
STANDARD
350
1B
  0
DICTIONARY
  5
D2
102
{ACAD_REACTORS
330
C
102
}
330
C
100
AcDbDictionary
281
     1
  0
ACDBDICTIONARYWDFLT
  5
CF
102
{ACAD_REACTORS
330
C
102
}
330
C
100
AcDbDictionary
281
     1
  3
Normal
350
D0
100
AcDbDictionaryWithDefault
340
D0
  0
DICTIONARY
  5
1D8
102
{ACAD_REACTORS
330
C
102
}
330
C
100
AcDbDictionary
281
     1
  3
Standard
350
1D9
  0
DICTIONARY
  5
2D
102
{ACAD_REACTORS
330
C
102
}
330
C
100
AcDbDictionary
281
     1
  3
CTABLESTYLE
350
1DF
  3
DIMADEC
350
2E
  0
SORTENTSTABLE
  5
1E4
102
{ACAD_REACTORS
330
1E3
102
}
330
1E3
100
AcDbSortentsTable
330
17
331
19E
  5
19E
331
801
  5
802
331
1A6
  5
1A6
331
1F5
  5
516
331
1FD
  5
530
331
1AE
  5
1AE
331
4EC
  5
6C2
331
1B6
  5
1B6
331
1BE
  5
1BE
331
E7
  5
E7
331
1C6
  5
1C6
331
20D
  5
580
331
874
  5
875
331
215
  5
5EA
331
1CE
  5
1CE
331
197
  5
197
331
91C
  5
923
331
951
  5
952
331
94F
  5
950
331
977
  5
643
331
19F
  5
19F
331
1A7
  5
1A7
331
5A4
  5
6E9
331
802
  5
804
331
1AF
  5
1AF
331
1FE
  5
53D
331
1B7
  5
1B7
331
50
  5
50
331
930
  5
949
331
58D
  5
6CF
331
82D
  5
867
331
1BF
  5
1BF
331
875
  5
876
331
1C7
  5
1C7
331
1CF
  5
1CF
331
216
  5
5F7
331
91D
  5
924
331
22E
  5
1FC
331
4C
  5
4C
331
952
  5
977
331
198
  5
198
331
1A0
  5
1A0
331
1A8
  5
1A8
331
1FF
  5
54A
331
1B0
  5
1B0
331
1B8
  5
1B8
331
1C0
  5
1C0
331
207
  5
564
331
82E
  5
874
331
876
  5
877
331
1C8
  5
1C8
331
1E5
  5
207
331
217
  5
604
331
886
  5
919
331
1D0
  5
1D0
331
735
  5
7AE
331
91E
  5
927
331
949
  5
94A
331
4D
  5
4D
331
199
  5
199
331
1E8
  5
20D
331
1A1
  5
1A1
331
1A9
  5
1A9
331
804
  5
818
331
1B1
  5
1B1
331
1B9
  5
1B9
331
200
  5
557
331
208
  5
571
331
1C1
  5
1C1
331
1C9
  5
1C9
331
1E6
  5
203
331
877
  5
881
331
EA
  5
EA
331
1D1
  5
1D1
331
4E
  5
4E
331
94A
  5
94B
331
19A
  5
19A
331
1E9
  5
20E
331
238
  5
202
331
1A2
  5
1A2
331
818
  5
82D
331
1AA
  5
1AA
331
1B2
  5
1B2
331
1C2
  5
1C2
331
209
  5
57E
331
7D6
  5
800
331
EB
  5
EB
331
1CA
  5
1CA
331
1D2
  5
1D2
331
72F
  5
792
331
94B
  5
94C
331
4F
  5
4F
331
1EA
  5
20F
331
6E9
  5
73D
331
19B
  5
19B
331
1F2
  5
219
331
1A3
  5
1A3
331
658
  5
73A
331
1AB
  5
1AB
331
4D1
  5
632
331
1B3
  5
1B3
331
1BB
  5
1BB
331
20A
  5
57F
331
1C3
  5
1C3
331
1E0
  5
1E0
331
1CB
  5
1CB
331
881
  5
883
331
919
  5
920
331
22A
  5
1F9
331
94C
  5
94D
331
738
  5
7BB
331
19C
  5
19C
331
6EA
  5
757
331
232
  5
200
331
7FF
  5
217
331
1A4
  5
1A4
331
740
  5
7FE
331
4D2
  5
633
331
1AC
  5
1AC
331
4EA
  5
68C
331
1B4
  5
1B4
331
1BC
  5
1BC
331
1C4
  5
1C4
331
1E1
  5
208
331
1CC
  5
1CC
331
91A
  5
921
331
94D
  5
94E
331
6EB
  5
785
331
19D
  5
19D
331
800
  5
801
331
1A5
  5
1A5
331
1AD
  5
1AD
331
1FC
  5
523
331
4EB
  5
6B5
331
1B5
  5
1B5
331
1BD
  5
1BD
331
E6
  5
E6
331
1C5
  5
1C5
331
1CD
  5
1CD
331
214
  5
5DD
331
91B
  5
922
331
732
  5
7A1
331
950
  5
951
331
94E
  5
94F
  0
LAYOUT
  5
D4
102
{ACAD_REACTORS
330
D1
102
}
330
D1
100
AcDbPlotSettings
  1

  2
HP DeskJet 1100C Printer
  4

  6

 40
0.0
 41
0.0
 42
0.0
 43
0.0
 44
0.0
 45
0.0
 46
0.0
 47
0.0
 48
0.0
 49
0.0
140
0.0
141
0.0
142
1.0
143
1.0
 70
   688
 72
     0
 73
     0
 74
     5
  7
monochrome.ctb
 75
    16
147
1.0
 76
     0
 77
     2
 78
   300
148
0.0
149
0.0
100
AcDbLayout
  1
Layout1
 70
     0
 71
     1
 10
0.0
 20
0.0
 11
420.0
 21
297.0
 12
0.0
 22
0.0
 32
0.0
 14
1.000000000000000E+20
 24
1.000000000000000E+20
 34
1.000000000000000E+20
 15
-1.000000000000000E+20
 25
-1.000000000000000E+20
 35
-1.000000000000000E+20
146
0.0
 13
0.0
 23
0.0
 33
0.0
 16
1.0
 26
0.0
 36
0.0
 17
0.0
 27
1.0
 37
0.0
 76
     0
330
14
  0
LAYOUT
  5
D3
102
{ACAD_REACTORS
330
D1
102
}
330
D1
100
AcDbPlotSettings
  1

  2
none_device
  4
Letter_(8.50_x_11.00_Inches)
  6

 40
6.349999904632567
 41
6.349999904632567
 42
6.350006103515625
 43
6.350006103515625
 44
215.8999938964844
 45
279.3999938964844
 46
0.0
 47
0.0
 48
0.0
 49
0.0
140
0.0
141
0.0
142
1.0
143
151.8120225518834
 70
 11952
 72
     0
 73
     1
 74
     0
  7
monochrome.ctb
 75
     0
147
0.0065870935858077
 76
     0
 77
     2
 78
   300
148
5143.658584328711
149
132.5203904112442
100
AcDbLayout
  1
Model
 70
     1
 71
     0
 10
0.0
 20
0.0
 11
12.0
 21
9.0
 12
0.0
 22
0.0
 32
0.0
 14
0.0
 24
0.0
 34
0.0
 15
0.0
 25
0.0
 35
0.0
146
0.0
 13
0.0
 23
0.0
 33
0.0
 16
1.0
 26
0.0
 36
0.0
 17
0.0
 27
1.0
 37
0.0
 76
     0
330
17
1001
ACAD_PSEXT
1000
None
1000
None
1000
Not applicable
1000
The layout will not be plotted unless a new plotter configuration name is selected.
1070
     0
  0
MLINESTYLE
  5
1B
102
{ACAD_REACTORS
330
1A
102
}
330
1A
100
AcDbMlineStyle
  2
STANDARD
 70
     0
  3

 62
   256
 51
90.0
 52
90.0
 71
     2
 49
0.5
 62
   256
  6
BYLAYER
 49
-0.5
 62
   256
  6
BYLAYER
  0
ACDBPLACEHOLDER
  5
D0
102
{ACAD_REACTORS
330
CF
102
}
330
CF
  0
TABLESTYLE
  5
1D9
102
{ACAD_REACTORS
330
1D8
102
}
330
1D8
100
AcDbTableStyle
  3
Standard
 70
     0
 71
     0
 40
0.06
 41
0.06
280
     0
281
     0
  7
STANDARD
140
0.18
170
     2
 62
     0
 63
     7
283
     0
274
    -2
284
     1
 64
     0
275
    -2
285
     1
 65
     0
276
    -2
286
     1
 66
     0
277
    -2
287
     1
 67
     0
278
    -2
288
     1
 68
     0
279
    -2
289
     1
 69
     0
  7
STANDARD
140
0.25
170
     5
 62
     0
 63
     7
283
     0
274
    -2
284
     1
 64
     0
275
    -2
285
     1
 65
     0
276
    -2
286
     1
 66
     0
277
    -2
287
     1
 67
     0
278
    -2
288
     1
 68
     0
279
    -2
289
     1
 69
     0
  7
STANDARD
140
0.18
170
     5
 62
     0
 63
     7
283
     0
274
    -2
284
     1
 64
     0
275
    -2
285
     1
 65
     0
276
    -2
286
     1
 66
     0
277
    -2
287
     1
 67
     0
278
    -2
288
     1
 68
     0
279
    -2
289
     1
 69
     0
  0
DICTIONARYVAR
  5
1DF
102
{ACAD_REACTORS
330
2D
102
}
330
2D
100
DictionaryVariables
280
     0
  1
STANDARD
  0
DICTIONARYVAR
  5
2E
102
{ACAD_REACTORS
330
2D
102
}
330
2D
100
DictionaryVariables
280
     0
  1
4
  0
ENDSEC
  0
EOF
